Oops, an error
Loading. Please wait.

Mejor No Hablar De Ciertas Cosas Tab

by Sumo
147 views 1 this week
no commentswrite comment
1 2 3 4 5
3 more votes to show rating
add to favorites
launch autoscroll
font size
0
reset
how to read this tab
guitar tuner
×
Best way to learn
"Mejor No Hablar De Ciertas Cosas"
Autoscroll
slow
fast
+/-
esc
set tempo
stop
Empieza el bajo facil:
G|---------------------------------
D|-------------------------0-------
A|0-2-0-2-0-2-0--0-2-0-2-0--2-0----
E|--------------2---------------2--     varias veces

Sigue con Bm haciendo juegos con la novena 
y alguna estirada


   Bm      Bm9
e|-7--------9--- 
B|-7--------7---
G|-7--------7---
D|-9--------9---
A|-x--------x---
E|-x--------x---.

La estirada la pueden hacer sin deshacer el acorde 
y dejandolo sonar, por ej:
e|-9--9----
B|-7-------
G|-7----9b-  -->estirada (en el CD viene con algo de distorcion
D|-9-------               pero sola suena bien igual)
A|-x-------
E|-x-------
Suggest correction
Give kudos to tab author, rate the tab!
1 2 3 4 5
comments
print report bad tab
guest
You may want to rate the tab now too:
select rating
Wanna post a correction for this tab? Suggest correction