Oops, an error
Loading. Please wait.

Mula Plateada Tab

by Sumo
99 views 1 this week
no commentswrite comment
1 2 3 4 5
3 more votes to show rating
add to favorites
launch autoscroll
font size
0
reset
how to read this tab
guitar tuner
×
Best way to learn
"Mula Plateada"
Autoscroll
slow
fast
+/-
esc
set tempo
stop
Riff:
En Obras 1986 creo que el riff se toca asi:

|-------------------------|--------------------------|
|---8-5-5--------5-5-888--|--8-5-5--------5----------|
|--------7-4----7---------|-------7-4----7----7-444--|
|-------------------------|--------------------------|
|-------------------------|--------------------------|
|-------------------------|--------------------------|

en el cd el riff creo que esta con un efecto en la la guitarra,
asi que es medio dificil sacarlo bien,por eso puse el de Obras
que se escucha mas claro.


Verso:(muteado)
|---------------|------|-------------------|
|---------------|------|-------------------|
|---------------|--x3--|-------------------|
|---------------|------|----------------4--|
|--555-000-333--|------|--555-000-333--5---|
|---------------|------|-------------------|


Solo:(con pedal de distorcion fuzz)
*= palanca de vibrato

|--------------------------------------|
|-------12-15****---------12-15bb****--|
|--13-14-------------13-14-------------|
|--------------------------------------|
|--------------------------------------|
|--------------------------------------|


-----------------------------------------12-15bbr---15p12------|
-------12-15-17-17b****---------12-15-17-----------------14~~--|
--13-14--------------------13-14-------------------------------|
---------------------------------------------------------------|
---------------------------------------------------------------|
---------------------------------------------------------------|


|--15p12----|------|--15bb------------------------------------------|
|-------14--|------|-----------12/1512------------------------------|
|-----------|--x8--|------------------14-13****----11-1314--11****--|
|-----------|------|------------------------------------------------|
|-----------|------|------------------------------------------------|
|-----------|------|------------------------------------------------|


pupi-pr@
.Pupi-godoy
Suggest correction
Give kudos to tab author, rate the tab!
1 2 3 4 5
comments
print report bad tab
guest
You may want to rate the tab now too:
select rating
Wanna post a correction for this tab? Suggest correction