Oops, an error
Loading. Please wait.

No Tan Distintos Bass Tab

version 2
version 2

Whole song

981 views 18 this week
no commentswrite comment
1 2 3 4 5
3 more votes to show rating
add to favorites
launch autoscroll
font size
0
reset
guitar tuner
×
Best way to learn
"No Tan Distintos"
Autoscroll
slow
fast
+/-
esc
set tempo
stop
La línea de bajo de este tema se puede dividir en dos fases
para facilitar su estudio, la parte del estribillo
 y la parte del verso.

La parte del estribillo e Introduccion que es la mitad del tema va asi:

G||-------------------------|
D||-------------------------|
A||--------------2---5------|
E||------3---3--------------|

G||-------------------------|
D||-------------------------|
A||--------------4---7------|
E||------5---5--------------|

G||-------------------------|
D||-------------------------|
A||-------9---9-------------|
E||---------------10---7----|

Luego la parte del verso va asi:

G||-------------------------------------------|
D||-------------------------------9--9--------|
A||--------5---9---7--7--7----7----------7--7-|
E||----7--------------------------------------|

G||-----------------------------------------|
D||-----------------------------------------|
A||--------------------------------9-9------|
E||--5-5-5-5-5-5-5-5----7-7-7---7------7--5-|

El verso se toca dos veces, en la segunda vuelta varía:

G||-------------------------------------------|
D||-------------------------------------------|
A||--------5---9---7--7--7--5--7--7--7--7-----|
E||----7--------------------------------------|

G||-----------------------------------------|
D||-----------------------------------------|
A||--------------------------------9-9------|
E||--5-5-5-5-5-5-5-5----7-7-7---7------7--5-|

Todo esto se toca todo junto, pero esta dividido en partes para que entre y
se entienda bien

Suerte tocando este hermoso reggae. ¡Crua Chan!
Suggest correction
Give kudos to tab author, rate the tab!
1 2 3 4 5
comments
print report bad tab
guest
You may want to rate the tab now too:
select rating
Wanna post a correction for this tab? Suggest correction