Oops, an error
Loading. Please wait.

Pinini Reggae Bass Tab

by Sumo
298 views 1 this week
no commentswrite comment
1 2 3 4 5
3 more votes to show rating
add to favorites
launch autoscroll
font size
0
reset
guitar tuner
Autoscroll
slow
fast
+/-
esc
set tempo
stop
Help us to improve Ultimate-Guitar.com Take our survey!
×
El tema es todo igual pero con alguna que otra variación
en la estrofa, por las dudas anote casi todo.
DETALLE: en la grabacion por alguna razon el bajo "no esta
         afinado en LA 440" por lo que para tocarlo
         sobre la pista hay que afinarlo una pendeja
         mas abajo. Sino sale igual, yo de incha bolas nomas.

  00'05" (Empieza el bajo)
G|--------------------------------------------------------------|
D|--------------------------------------------------------------|
A|--7-4---7-4---7-4---------------------------------------------|
E|------------------7-4---7-4---7-4-----------------------------| X6

  ESTRIBO 00'34"
G|--------------------------------------------------------------|
D|--------------------------------------------------------------|
A|--------------------------------------------------2---4---16/-|
E|--2---2-3-4-2-4-----2---2-3-4-2-4-----2---2-3-4---------------|

  00'44"
G|----------------------------------|
D|----------------------------------|
A|--7-4---7-4---7-4-----------------|
E|------------------7-4---7-4---7-4-| X4 La segunda con variación A

 *ESTRIBO 01'02"

  01'12"
G|----------------------------------|
D|----------------------------------|
A|--7-4---7-4---7-4-----------------|    La segunda y cuarta
E|------------------7-4---7-4---7-4-| X4 con variación A

 *ESTRIBO 01'31"

  01'40"
G|----------------------------------|
D|----------------------------------|
A|--7-4---7-4---7-4-----------------|    La segunda y tercera
E|------------------7-4---7-4---7-4-| X4 con variación B

 *ESTRIBO 01'59"

  02'08"
G|----------------------------------|
D|----------------------------------|    La primera y segunda
A|--7-4---7-4---7-4-----------------|    con variacion B,
E|------------------7-4---7-4---7-4-| X4 la tercera con ambas

 *ESTRIBO 02'27"


  02'36"
G|----------------------------------|
D|----------------------------------|
A|--7-4---7-4---7-4-----------------|
E|------------------7-4---7-4---7-4-| X4 La segunda con variación B

 *ESTRIBO 02'56"

  03'05"
G|----------------------------------|
D|----------------------------------|    La primera con variación B,
A|--7-4---7-4---7-4-----------------|    la segunda y la tercera con ambas,
E|------------------7-4---7-4---7-4-| X4 y la cuarta con variación A


 *ESTRIBO 03'23"

  FIN


  VARIACIÓN A
G|--------------------------------------------------------------|
D|-------------4------------------------------------------------|
A|--7-4---7-4----7-4--------------------------------------------|
E|-------------------7-4---7-4---7-4----------------------------|

  VARIACIÓN B
G|--------------------------------------------------------------|
D|--------------------------------------------------------------|
A|--7-4---7-4---7-4---------------4-----------------------------|
E|------------------7-4---7-4---7-------------------------------|

Para ariel que comparte el sentimiento!!!

TOM AL
Suggest correction
Give kudos to tab author, rate the tab!
1 2 3 4 5
comments
print report bad tab
guest
You may want to rate the tab now too:
select rating
Wanna post a correction for this tab? Suggest correction