Oops, an error
Loading. Please wait.

Pinini Reggae Tab

138 views 1 this week
no commentswrite comment
1 2 3 4 5
3 more votes to show rating
add to favorites
launch autoscroll
font size
0
reset
how to read this tab
guitar tuner
×
Best way to learn
"Pinini Reggae"
Autoscroll
slow
fast
+/-
esc
set tempo
stop
Bajo:
|----------------------------------|
|----------------------------------|
|--7-4---7-4---7-4-----------------|
|------------------7-4---7-4---7-4-|


guitarra:
DO#         SOL#
|--44-444-----44-444--|
|--66-666-----44-444--|
|--66-666-----55-555--|[x4]
|--66-666-----66-666--|
|--44-444-----66-666--|
|-------------44-444--|


guitarra 2:
RIFF:
|---------------|----------------|
|---------------|----------------|
|---------------|----------------|[todo x2]
|---64-----6646-|---64---666646--|
|--4--7--4------|--4--7----------|
|---------------|----------------|


FA#         SOL#
|--2-2222----4---|
|--2-2222----4---|
|--3-3333----5---|[X2]
|--4-4444----6---|
|--4-4444----6---|
|--2-2222----4---|


FA#         SOL#    DO#
|--2-2222----4-------4--|
|--2-2222----4-------6--|
|--3-3333----5-------6--|
|--4-4444----6-------6--|
|--4-4444----6-------4--|
|--2-2222----4----------|


Verso:

|---------------|----------------|
|---------------|----------------|
|---------------|----------------|[x2]
|---64-----6646-|---64---666646--|
|--4--7--4------|--4--7----------|
|---------------|----------------|


|--------------|--------------|
|--------------|--------------|
|----4---6-4---|----4---------|
|---6-6-----6--|---6-6-4br-6--|
|--4-----------|--4-----------|
|--------------|--------------|


|---------------|----------------|
|---------------|----------------|
|---------------|----------------|
|---64-----6646-|---64---666646--|
|--4--7--4------|--4--7----------|
|---------------|----------------|


[FA#-SOL#] x2  [FA#-SOL#-DO#]


|---------------|----------------|
|---------------|----------------|
|---------------|-4---6b6b6b-4---|
|---64-----6646-|--64------------|
|--4--7--4------|----------------|
|---------------|----------------|


|---------------|----------------|
|---------------|----------------|
|---------------|----------------|
|---64-----6646-|---64---666646--|
|--4--7--4------|--4--7----------|
|---------------|----------------|


Solo de guitarra:

|-------------------------|--------------------|
|--16-15-14-13------------|-16-15-14-13--------|
|-------------16-15-14-13-|------------14br13--|
|-------------------------|--------------------|
|-------------------------|--------------------|
|-------------------------|--------------------|


|-------------------------|--------------------|
|--16-15-14-13------------|-16-15-14-13--------|
|-------------16-15-14br--|------------14br13--|
|-------------------------|--------------------|
|-------------------------|--------------------|
|-------------------------|--------------------|


[FA#-SOL#] x2  [FA#-SOL#-DO#]


[Repite verso]


[FA#-SOL#] x2  [FA#-SOL#-DO#]


|---------------|----------------|
|---------------|----------------|
|---------------|-------4--6b----|
|---64-----6646-|--464---6-------|
|--4--7--4------|-4--------------|
|---------------|----------------|


|---------------|----------------|
|---------------|----------------|
|---------------|-6b4------------|
|---64-----6646-|----6-46-46-----|
|--4--7--4------|----------------|
|---------------|----------------|


|---------------|----------------|
|---------------|----------------|
|---------------|----------------|
|---64-----6646-|---64---666646--|
|--4--7--4------|--4--7----------|
|---------------|----------------|


|---------------|----------------|
|---------------|----------------|
|---------------|---4br--6b4-----|
|---64-----6646-|--6---6----6----|
|--4--7--4------|-4--------------|
|---------------|----------------|


[FA#-SOL#] x2  [FA#-SOL#-DO#]


[Repite verso]


[FA#-SOL#] x2  [FA#-SOL#-DO#]


[repite riff]

[FA#-SOL#] x2  [FA#-SOL#-DO#]

fin.


pupi_pr@
Suggest correction
Give kudos to tab author, rate the tab!
1 2 3 4 5
comments
print report bad tab
guest
You may want to rate the tab now too:
select rating
Wanna post a correction for this tab? Suggest correction