Oops, an error
Loading. Please wait.

Que Me Pisen Tab

58 views 1 this week
no commentswrite comment
1 2 3 4 5
3 more votes to show rating
add to favorites
launch autoscroll
font size
0
reset
how to read this tab
guitar tuner
Autoscroll
slow
fast
+/-
esc
set tempo
stop
Toda la canción con A y E.

Intro de Saxo:
e|-9-10--9-7-|-------------|-9-10--9-7-|---7--9--|----------|
B|-----------|-------------|-----------|-9-------|-10-10-10-|
G|-----------|-10-11--10-9-|-----------|---------|----------|
D|-----------|-------------|-----------|---------|----------|
A|-----------|-------------|-----------|---------|----------|
E|-----------|-------------|-----------|---------|----------|

e|-------7----------|------9--12----|---8-8--8--8-8-|-8/9---|
B|---7-9--(7h)9-7---|-10---------10-|---------------|-------|
G|----------------9-|---------------|---------------|-------|
D|-9----------------|---------------|---------------|-------|
A|------------------|---------------|---------------|-------|
E|------------------|---------------|---------------|-------|

     A             E         A            E
Yo quiero a mi bandera, yo quiero a mi bandera,
yo quiero a mi bandera, yo quiero a mi bandera.
Planchadita, planchadita, planchadita.

Yo quiero la mamadera, yo quiero la mamadera
Yo quiero la mamadera, yo quiero la mamadera
Yo necesito la mamadera,
calientita, calientita, calientita.
calientita, calientita, calienti-ti-ti-ta.
rhodesiaaaaa, oh oh oh oh

(solo de Saxo en A mayor)

Yo quiero cruzar con la barrera,
y que me pisen, que me pisen, que me pisen
que me pisen, que me pisen, que me pis-pis-pisen.

(Rapeado estilo Jamaica)
When the honky-man come
Down to Babylon town
Going to scare you now
Right

I'm going to move and move
And skip my hip
And make the litte girls split
When they think of the big bald man

I'm going to move down the avenue
With no shoes
I'm gonna laugh and cry

I'm going to move I'm going to
(Dukdacadangandingande)
All day long
I'm going to make them try to

Remember natty dreadlock
I got the bald natty dreadlock, jah
Absurd natty dreadlock
He got the baldman natty dreadlock here now

You got the yellow man
You got the big black man
You got the English man
You got the Argentinean man

With the moccasin shoe
Walking down Florida just a two by two
And natty dreadlock
And natty dreadlock jah

Do it like you want
Do it when you can
Natty dreadlock moving
Hand in hand
A bald man come...

---------------------

Acordes
A   577655
E   x7999x
Suggest correction
Give kudos to tab author, rate the tab!
1 2 3 4 5
comments
print report bad tab
guest
You may want to rate the tab now too:
select rating
Wanna post a correction for this tab? Suggest correction