Oops, an error
Loading. Please wait.

Regtest Bass Tab

by Sumo
179 views 3 this week
no commentswrite comment
1 2 3 4 5
3 more votes to show rating
add to favorites
launch autoscroll
font size
0
reset
guitar tuner
Autoscroll
slow
fast
+/-
esc
set tempo
stop
Help us to improve Ultimate-Guitar.com Take our survey!
×
ANTES DE ARRANCAR:
el tema entero se centra en una BASE PRINCIPAL.
esta varía algunas veces, como en los finales de las
estrofas, o en los estribillos... pero basicamente
el tema se puede tocar entero con la BASE PRINCIPAL.

lo ideal es escucharlo tantas veces sea necesario,
hasta poder acordarse en que estrofa está cada
variaciòn, y así tocarlo igual.


BASE PRINCIPAL
G|-----------------------|----------------------|
D|-----------------------|----------------------|
A|---------------3-5-3---|----------------------|
E|-3-5-3-5-5---5-------5-|--3-5-3-5-3----3-0-3--|


VARIACION 1
G|-------------------------------|----------------------|
D|-------------------------------|----------------------|
A|-----------------------3-5-3---|----------------------|
E|-3-5-(5)-3-(3)-5-5---5-------5-|--3-5-3-5-3----3-0-3--|

VARIACION 2
G|-----------------------|------------------------|
D|-----------------------|------------------------|
A|---------------3-5-3---|------------------------|
E|-3-5-3-5-5---5-------5-|--3-5-3-5-3----(X)-0-3--|

VARIACION 3
G|-----------------------|------------------------------|
D|-----------------------|------------------------------|
A|---------------3-5-3---|------------------------------|
E|-3-5-3-5-5---5-------5-|--3-5-(5)-3-(3)-5-3----3-0-3--|

FINAL
G|----------------|
D|-7-5------------|
A|-----7-6-5------|
E|-----------8-5--|

Play I some music
I hope I don't come on too strong
You can't refuse it
But you know you might be wrong
You could call it reggae
You couldn't call i t rock and roll
Come on , get ready
'cos there's a big ball going to roll
You'd better get up brother, up brother,
Up brother yeah!
Don't you go too far!
'cos then you'll come down brother,
Down brother, down brother, down yeah!
Like a shooting star.
I had a dream oh yeah, in 1973
I dream a spaceship, come down to deliver me
Well it was big and white
And it had come a long long way
A black star liner?
You know, I could not say
But it took me up brother, up brother
up brother, up brother, yeah
You know, it took me far!
Then it brought me down brother, down brother
Down brother, down brother, down yeah!
Like a shooting star.

++++++++++++++++


ojalá lo puedan leer y tocar.

Saludos!...
tin

Suggest correction
Give kudos to tab author, rate the tab!
1 2 3 4 5
comments
print report bad tab
guest
You may want to rate the tab now too:
select rating
Wanna post a correction for this tab? Suggest correction