Oops, an error
Loading. Please wait.

Regtest Tab

by Sumo
97 views 3 this week
no commentswrite comment
1 2 3 4 5
3 more votes to show rating
add to favorites
launch autoscroll
font size
0
reset
how to read this tab
guitar tuner
Autoscroll
slow
fast
+/-
esc
set tempo
stop
Help us to improve Ultimate-Guitar.com Take our survey!
×
 Intro:

|------0----------1---------0---------0----|------|
|-------1--------3-3---------1---------0---|------|
|----2---2------2---2-----2---2---------1--|--x2--|
|---2----------0---------2----------2------|------|
|--0--------------------0----------2-------|------|
|---------------------------------0--------|------|


 Cancion:

|-----5-------5-------10-------10--|-----5-------5-------x------x--|
|--xx-5----xx-5----xx-10----xx-10--|--xx-5----xx-5----xx-9---xx-9--|
|--xx-5----xx-5----xx-10----xx-10--|--xx-5----xx-5----xx-9---xx-9--|
|--xx-7----xx-7----xx-12----xx-12--|--xx-7----xx-7----xx-9---xx-9--|
|--xx-7----xx-7----xx-12----xx-12--|--xx-7----xx-7----xx-7---xx-7--|
|--xx-5----xx-5----xx-10----xx-10--|--xx-5----xx-5----xx-----xx----|


Solo 1:

|-------------------------------------------------------------|
|--8-1010--8-8h(10)-8~~----15/17-15-131513--------------------|
|-9---------------------------------------14--14p12-----------|
|---------------------------------------------------12/(14)12-|
|-------------------------------------------------------------|
|-------------------------------------------------------------|


|----------12----------------------------|
|----13-15-------10-12-12br----1210-108--|
|-12-----------12------------------------|
|----------------------------------------|
|----------------------------------------|
|----------------------------------------|

-----------------------------------------|
--10p8-----------------------------------|
------9----9p7---------------------------|
--------------9-----7--------------------|
-------------------9-9-------------------|
-------------------------10/(12)-10--12/-|

Solo 2:
|------------------------------------------
|--15/(17)---1315---------13-15br-15br13---
|----------------14/----14-----------------
|------------------------------------------
|------------------------------------------
|------------------------------------------

------------------------|
----13--15-13-15/(17)15-|
------14----------------|
------------------------|
------------------------|
------------------------|


|---------------------------17----
|--13--13-15-15/(17)------15--15--
|----14---------------------------
|---------------------------------
|---------------------------------
|--------------------------------

--------17-----------15--17--19--|
--151315--1513-------------------|
-------------------17--17--17----|
---------------------------------|
---------------------------------|
---------------------------------|
 Final:

|---------5---------------|
|---------5---------------|
|-97------5---------------|
|----975--7---------------|
|-------7-7---------------|
|---------5---------------|

los solos no estan 100% bien,pero igual suenan bastante bien.
elpupi666@
.Pupi
Suggest correction
Give kudos to tab author, rate the tab!
1 2 3 4 5
comments
print report bad tab
guest
You may want to rate the tab now too:
select rating
Wanna post a correction for this tab? Suggest correction