Oops, an error
Loading. Please wait.

Telefonos Sonando En Habitaciones Vacias Bass Tab

by Sumo
61 views 1 this week
no commentswrite comment
1 2 3 4 5
3 more votes to show rating
add to favorites
launch autoscroll
font size
0
reset
guitar tuner
Autoscroll
slow
fast
+/-
esc
set tempo
stop
Help us to improve Ultimate-Guitar.com Take our survey!
×
Minuto 4:03 cuando arranca con tuti


1|----------------------|---------------------|---------------|
2|----------------------|---------------------|---------------|
3|------------------2-3-|(5)--5---x5---5---3-5|(7)--7----7-5-3|
4|-8-7-(5)-x5-x5-x5-----|------3--------3-----|------7--7-----|
                                              ___Variacion 1___


1|-----------9-7-5|---------------------|
2|----------------|---------------------| Y vuelve a arrancar.
3|(7)--7----7-5-3-|---------------3-5---|
4|------7--7------|8-7-(5)-x5-x5-5------|
 ___Variacion 2___

() = NOTA TONICA, ES IMPORTANTE DISTINGUIRLA EN ESTA CANCION.


Por momentos hace algunas variaciones,agrega notas mudas tambien,ahi
agregue una de ellas(usa octavas de vez en cuando en la 3er estrofa)
Suggest correction
Give kudos to tab author, rate the tab!
1 2 3 4 5
comments
print report bad tab
guest
You may want to rate the tab now too:
select rating
Wanna post a correction for this tab? Suggest correction