Oops, an error
Loading. Please wait.

Tv Caliente Bass Tab

version 1
version 1

Whole song

by Sumo
38 views 1 this week
no commentswrite comment
1 2 3 4 5
3 more votes to show rating
add to favorites
launch autoscroll
font size
0
reset
guitar tuner
Autoscroll
slow
fast
+/-
esc
set tempo
stop
Help us to improve Ultimate-Guitar.com Take our survey!
×
INTRO

G|--------4----------|
D|-7-7-7-7-7--7-7-7--| X 4
A|5-5-5-5----5-5-----|
E|------------------5|

  B     C     B           B     C
G|--4-4---5-5---4-4---2-2|--4-4---5-5--------|
D|-----------------------|-------------------| X 2
A|2--2--3--3--2--2--0--0-|2--2--3--3--5-3-2-0|
E|-----------------------|-------------------|

VERSOS

G|--------4----------|
D|-7-7-7-7-7--7-7-7--| X 4
A|5-5-5-5----5-5-----|
E|------------------5|

ESTRIBILLO ("Ageless beauty with a sense of duty...)

  B     C     B           B     C
G|--4-4---5-5---4-4---2-2|--4-4---5-5--------|
D|-----------------------|-------------------| X 2
A|2--2--3--3--2--2--0--0-|2--2--3--3--5-3-2-0|
E|-----------------------|-------------------|

VERSOS

ESTRIBILLO
("You've got blonde hair and blue and blue eyes...")

SOLO DE SAXO (el bajo se clava en A)

VERSOS

ESTRIBILLO ("in a dress, in a dressing gown...)

SOLO DE SAXO

VERSOS

ESTRIBILLO
("You've got blonde hair and blue and blue eyes...")

SOLO DE SAXO Y FINAL
Suggest correction
Give kudos to tab author, rate the tab!
1 2 3 4 5
comments
print report bad tab
guest
You may want to rate the tab now too:
select rating
Wanna post a correction for this tab? Suggest correction