Oops, an error
Loading. Please wait.

Tv Caliente Bass

version 2
version 2

Whole song

by Sumo
80 views 3 this week
no commentswrite comment
1 2 3 4 5
1 last vote to show rating
add to favorites
launch autoscroll
font size
0
reset
guitar tuner
×
Best way to learn
"TV Caliente"
Autoscroll
slow
fast
+/-
esc
set tempo
stop
Intro y Estrofa:

G|--------------4------------------|
D|----7---7---7---7---7---7--------|
A|--5---5---5-------5---5---5------|
E|------------------------------5--|


1° y 2° Estribillo:

G|--4---4---4-5---5---5-4---4---4------------|
D|----5---5-----5---5-----5---5---7-5-7-5-7--|
A|-------------------------------------------|
E|-------------------------------------------|

G|--4---4---4-5---5---5--7-5-4------------|
D|----5---5-----5---5----------7-5-7-5-7--|
A|----------------------------------------|
E|----------------------------------------|


3° 4° y 5° Estribillo:

G|--4---4---4-5---5---5-4---4---4------------|
D|----5---5-----5---5-----5---5---7-5-7-5-7--|
A|-------------------------------------------|
E|-------------------------------------------|

G|--4---4---4-5---5---5--7-5-4-----------|
D|----5---5-----5---5----------7-5-7-5-7-|
A|---------------------------------------|
E|---------------------------------------|

G|-------------------------------|
D|-7-5-7-5-7-7-5-7-5-7-7-5-7-5-7-|
A|-------------------------------|
E|-------------------------------|


Puente y Final:

G|-------------------------------|
D|-------------------------------|
A|-----7-----7-----7----9---9----|
E|--5-----5-----5-----7---7---7--|


Intro x4
1° Estribillo x2
Estrofa x4
2° Estribillo x2
Estrofa x4
3° Estribillo x2
Puente x4
Estrofa x4
4° Estribillo x2
Puente x4
Estrofa x4
5° Estribillo x2
Final X8
Suggest correction
Give kudos to tab author, rate the tab!
1 2 3 4 5
comments
print report bad tab
guest
You may want to rate the tab now too:
select rating
Wanna post a correction for this tab? Suggest correction