Oops, an error
Loading. Please wait.

Waiting For 1989 Bass

by Sumo
182 views 6 this week
no commentswrite comment
1 2 3 4 5
3 more votes to show rating
add to favorites
×
Save as Personal and add changes to this tab that will be seen only by you. Learn more ›
×
You can save this tab as Personal to edit and correct it or add notes. All changes will be seen only by you. Learn more »
save as personal
new!
launch autoscroll
font size
0
reset
guitar tuner
Autoscroll
slow
fast
+/-
esc
set tempo
stop
G|----|----|
D|----|----| intro
A|--0-|2---|
E|3---|----|
**********************************************************
Parte 1 Tan tan tan jajaja

G|--------|--------|--------|--------|
D|--------|----2---|440-----|440-----|
A|--2-5---|0-4-----|----2---|----2---|  x 4 veces
E|3-------|--------|--------|--------|

De esta manera les queda mas armado
evitan pasear por todo el diapason.
**********************************************************
Parte 2

G|--------|--------|--0---0-|4---4---|--------|--------|
D|----0---|4---4---|2---2---|--------|--------|2---2---|
A|2-------|--------|--------|--------|0---4---|--------|
E|--------|--------|--------|--------|--------|--------|


G|--------|--------|
D|440-----|440-----|
A|----2---|----2---|x 2 veces
E|--------|--------|

Y asi susesivamente hasta que termina
Parte 1
Parte 2

THE END

saludos

Pericko
Suggest correction
Give kudos to tab author, rate the tab!
1 2 3 4 5
comments
print report bad tab
guest
Wanna post a correction for this tab? Suggest correction