Oops, an error
Loading. Please wait.

A Fair Trade bass

version 1
version 1

Whole song

Interactive

174 views 3 this week
no commentswrite comment
1 2 3 4 5
3 more votes to show rating
add to favorites
×
Save as Personal and add changes to this tab that will be seen only by you. Learn more ›
×
You can save this tab as Personal to edit and correct it or add notes. All changes will be seen only by you. Learn more »
launch autoscroll
font size
0
reset
guitar tuner
edit
Autoscroll
slow
fast
+/-
esc
set tempo
stop
Author
Difficulty
Track 1
      E  S S S S S S S S S    E  S S S S S S S S S    E  S S S S S S S S S  
G||------------------------|-----------------------|-----------------------|
D||*-----------------------|-----------------------|-----------------------|
A||*---------------5---3---|---------------7---5---|---------------9---7---|
E||---0--0-0-0-0-----------|--0--0-0-0-0-----------|--0--0-0-0-0-----------|


  E  S S S S S  S S S S      E  S S S S S S S S S    E  S S S S S S S S S  
-------------------------||-----------------------|-----------------------|
------------------------*||-----------------------|-----------------------|
---------------10---9---*||---------------5---3---|---------------7---5---|
--0--0-0-0-0-------------||--0--0-0-0-0-----------|--0--0-0-0-0-----------|


  E  S S S S S S S S S    E  S S S S S  S S S S  
-----------------------|------------------------|
-----------------------|------------------------|
---------------9---7---|---------------10---9---|
--0--0-0-0-0-----------|--0--0-0-0-0------------|


    E  S S S S S S S S S S S S S S    E  S S S S S S S S S S S S S S  
|----------------------------------|---------------------------------|
|*---------------------------------|---------------------------------|
|*---------5-----------2-----------|---------5-----------2-----------|
|---0--0-3---0-3-5-0-3---0-3-2-5-3-|--0--0-3---0-3-5-0-3---0-5-3-5-3-|


  E  S S S S S S S S S S S S S S    E  S S S S S S S S S S S S S S    
---------------------------------|----------------------------------||
---------------------------------|---------------------------------*||
---------5-----------2-----------|---------5-----------2-----------*||
--0--0-3---0-3-5-0-3---0-3-2-5-3-|--0--0-3---0-3-5-0-3---0-5-3-5-3--||


   E  S S S S S S S S S S S S S S    E  S S S S S S S S S S S S S S  
----------------------------------|---------------------------------|
*---------------------------------|---------2-----------------------|
*---------5-----------2-----------|--0--0-3---0-3-5-0-2-3-0-2-0-----|
---0--0-3---0-3-5-0-3---0-3-2-5-3-|-----------------------------3-2-|


  E  S S S S S S S S S S S S S S    E  S S S S S S S S S S S S S S    
---------------------------------|----------------------------------||
---------------------------------|---------2-----------------------*||
---------5-----------2-----------|--0--0-3---0-3-5-0-2-3-0-2-0-----*||
--0--0-3---0-3-5-0-3---0-3-2-5-3-|-----------------------------3-2--||


  E  S S S S S S S S S S S S S S    E  S S S S S S S S S S S S S S  
---------------------------------|---------------------------------|
---------------------------------|---------------------------------|
---------5-----------2-----------|---------5-----------2-----------|
--0--0-3---0-3-5-0-3---0-3-2-5-3-|--0--0-3---0-3-5-0-3---0-5-3-5-3-|


    E  S S S S S S S S S S S S S S    E  S S S S S S S S S S S S S S  
|----------------------------------|---------------------------------|
|*---------------------------------|---------2-----------------------|
|*---------5-----------2-----------|--0--0-3---0-3-5-0-2-3-0-2-0-----|
|---0--0-3---0-3-5-0-3---0-3-2-5-3-|-----------------------------3-2-|


  E  S S S S S S S S S S S S S S    E  S S S S S S S S S S S S S S    
---------------------------------|----------------------------------||
---------------------------------|---------2-----------------------*||
---------5-----------2-----------|--0--0-3---0-3-5-0-2-3-0-2-0-----*||
--0--0-3---0-3-5-0-3---0-3-2-5-3-|-----------------------------3-2--||


  E  S S S S S S S S S S S S S S    E  S S S S S S S S S S S S S S  
---------------------------------|---------------------------------|
---------------------------------|---------------------------------|
---------5-----------2-----------|---------5-----------2-----------|
--0--0-3---0-3-5-0-3---0-3-2-5-3-|--0--0-3---0-3-5-0-3---0-5-3-5-3-|


  E  E  S  S S S S   E  E.  S S    E  E  S S S S E.  Q     S  
-------------7---9s-11--9---7---|------------7---7-----------|
--------7h-9---9--------------9-|--------7-9---9-----9\------|
--------------------------------|----------------------------|
--0--0--------------------------|--0--0--------------------2-|


  E  E  Q.      S  S E.  S    Q.      S   S  S   S  S   S  S   E.   
---------------------------|---------16s-14-14s-12-12s-11-11s-12---|
-----4--4\-----------4-----|---------------------------------------|
----------------4h-5-------|---------------------------------------|
--2----------------------0-|--L------------------------------------|


  E  E  S  S S S S   E  E.  S S    E  E  S S S S E.  Q     S  
-------------7---9s-11--9---7---|------------7---7-----------|
--------7h-9---9--------------9-|--------7-9---9-----9\------|
--------------------------------|----------------------------|
--0--0--------------------------|--0--0--------------------2-|


  E  E  Q.      S  S E.  S    Q.      S   S  S   S  S   S  S   E.   
---------------------------|---------16s-14-14s-12-12s-11-11s-12---|
-----4--4\-----------4-----|---------------------------------------|
----------------4h-5-------|---------------------------------------|
--2----------------------0-|--L------------------------------------|


    E  S S S S S S S S S S S S S S    E  S S S S S S S S S S S S S S  
|----------------------------------|---------------------------------|
|*---------------------------------|---------2-----------------------|
|*---------5-----------2-----------|--0--0-3---0-3-5-0-2-3-0-2-0-----|
|---0--0-3---0-3-5-0-3---0-3-2-5-3-|-----------------------------3-2-|


  E  S S S S S S S S S S S S S S    E  S S S S S S S S S S S S S S    
---------------------------------|----------------------------------||
---------------------------------|---------2-----------------------*||
---------5-----------2-----------|--0--0-3---0-3-5-0-2-3-0-2-0-----*||
--0--0-3---0-3-5-0-3---0-3-2-5-3-|-----------------------------3-2--||


  E  S S S S S S S S S S S S S S    E  S S S S S S S S S S S S S S  
---------------------------------|---------------------------------|
---------------------------------|---------------------------------|
---------5-----------2-----------|---------5-----------2-----------|
--0--0-3---0-3-5-0-3---0-3-2-5-3-|--0--0-3---0-3-5-0-3---0-5-3-5-3-|


    E  S S S S S S S S S S S S S S    E  S S S S S S S S S S S S S S  
|----------------------------------|---------------------------------|
|*---------------------------------|---------2-----------------------|
|*---------5-----------2-----------|--0--0-3---0-3-5-0-2-3-0-2-0-----|
|---0--0-3---0-3-5-0-3---0-3-2-5-3-|-----------------------------3-2-|


  E  S S S S S S S S S S S S S S    E  S S S S S S S S S S S S S S    
---------------------------------|----------------------------------||
---------------------------------|---------2-----------------------*||
---------5-----------2-----------|--0--0-3---0-3-5-0-2-3-0-2-0-----*||
--0--0-3---0-3-5-0-3---0-3-2-5-3-|-----------------------------3-2--||


  E  S S S S S S S S S S S S S S    E  S S S S S S S S S S S S S S  
---------------------------------|---------------------------------|
---------------------------------|---------------------------------|
---------5-----------2-----------|---------5-----------2-----------|
--0--0-3---0-3-5-0-3---0-3-2-5-3-|--0--0-3---0-3-5-0-3---0-5-3-5-3-|


  E  S S S S S S S S S S S E.     E  E  S S S S E  S S S E  S  
-------------------------------|------------------------------|
---------0-2-----2-----2---2---|--------0-2-----2----2---2----|
-------------------------------|------------------------------|
--0--0-0-----0-0---0-0---0-----|--0--0------0-0----0---0----2-|


  S S S S S S S S S S S S S S S S    E  S S S S S S S S S S S E.   
----------------------------------|-------------------------------|
----------------------------------|---------0-2-----2-----2---2---|
----------------5-L-5-5-5-5-5-5---|-------------------------------|
--L-2-2-2-2-2-2-----------------0-|--L--0-0-----0-0---0-0---0-----|


  E  S S S S S S S S S S S E.     E  E  S S S S E  S S S E  S  
-------------------------------|------------------------------|
---------0-2-----2-----2---2---|--------0-2-----2----2---2----|
-------------------------------|------------------------------|
--0--0-0-----0-0---0-0---0-----|--0--0------0-0----0---0----2-|


  S S S S S S S S S S S S S S S S    E  S S S S S S S S S S S E.   
----------------------------------|-------------------------------|
----------------------------------|---------0-2-----2-----2---2---|
----------------5-L-5-5-5-5-5-5---|-------------------------------|
--L-2-2-2-2-2-2-----------------0-|--L--0-0-----0-0---0-0---0-----|


  E  S S S S S S S S S S S S S S    E  S S S S S S S S S S S S S S  
---------------------------------|---------------------------------|
---------2-2-----------2---2-----|---------2-2-----------2---2-----|
---------------------------------|---------------------------------|
--0--0-0-----0-0-0-0-0---0---0-0-|--0--0-0-----0-0-0-0-0---0---0-2-|


  S S S S S S S S S S S S S S S S    S S S S S S S S S S S S S S S S  
----------------------------------|----------------------------------|
----------------------------------|----------------------------------|
----------------------------------|----------------------------------|
--L-2-2-2-2-2-2-2-L-2-2-2-2-2-2-3-|--L-3-3-3-3-3-3-5-L-5-5-5-5-5-5-5-|


  E  S S S S S S S S S S S S S S    E  S S S S S S S S S S S S S S  
---------------------------------|---------------------------------|
---------2-2-----------2---2-----|---------2-2-----------2---2-----|
---------------------------------|---------------------------------|
--0--0-0-----0-0-0-0-0---0---0-0-|--0--0-0-----0-0-0-0-0---0---0-0-|


  S S S S S S S S S S S S S S S S    E  S S S S S S S S S S S S S S  
----------------------------------|---------------------------------|
----------------------------------|---------2-2-----------2---2-----|
----------------5-L-5-5-5-5-5-5---|---------------------------------|
--L-2-2-2-2-2-2-----------------0-|--L--0-0-----0-0-0-0-0---0---0-0-|


  E  S S S S S S S S S    E  S S S S S S S S S    E  S S S S S S S S S  
-----------------------|-----------------------|-----------------------|
-----------------------|-----------------------|-----------------------|
-----------------------|-----------------------|-----------------------|
--0--0-0-0-0---0---0---|--0--0-0-0-0---0---0---|--0--0-0-0-0---0---0---|


  E  S S S S S S S S S      E  S S S S S S S S S    E  S S S S S S S S S  
-----------------------||------------------------|-----------------------|
-----------------------||*-----------------------|-----------------------|
-----------------------||*---------------5---3---|---------------7---5---|
--0--0-0-0-0---0---0---||---0--0-0-0-0-----------|--0--0-0-0-0-----------|


  E  S S S S S S S S S    E  S S S S S  S S S S    
-----------------------|-------------------------||
-----------------------|------------------------*||
---------------9---7---|---------------10---9---*||
--0--0-0-0-0-----------|--0--0-0-0-0-------------||


  E  S S S S S S S S S S E  S S    E  S S S S S S S S S S E  S S  
--------------------------------|--------------------------------|
--------------------------------|--------------------------------|
--------------------------------|--1--1-1-1-1---1---1---1-L--1-1-|
--0--0-0-0-0---0---0---0-L--0-0-|--------------------------------|


  E  S S S S S S S S S S E  S S    E.  S E.  S  E  S S S S E   
--------------------------------|-----------------------------|
--------------------------------|--------5---5s-7--5-5-4-4-5--|
--------------------------------|-----------------------------|
--2--2-2-2-2---2---2---2-L--2-3-|--L---3----------------------|


  E  S S S S S S S S S S E  S S    E  S S S S S S S S S S E  S S  
--------------------------------|--------------------------------|
--------------------------------|--------------------------------|
--------------------------------|--1--1-1-1-1---1---1---1-L--1-1-|
--0--0-0-0-0---0---0---0-L--0-0-|--------------------------------|


  E  S S S S S S S S S S E  S S    S S S S S  S S  S S  S S   S  Q      
--------------------------------|---------------8----8-11-8h-----------|
--------------------------------|------7---7-10---10---------10-10\----|
--------------------------------|--6-9---9-----------------------------|
--2--2-2-2-2---2---2---2-L--2-2-|--------------------------------------|


  S S S S S S S S S S S    S S S S S S S S S S S    S S S S S S S S S S S  
------------------------|------------------------|------------------------|
--5---------------------|--5---------------------|--5---------------------|
----7---9---7---5---7---|----7---9---7---5---7---|----7---9---7---5---7---|
------0---0---0---0---0-|------0---0---0---0---0-|------0---0---0---0---0-|


  S S S S S S S S S S S    S  S S  S S  S S S S  S S  
------------------------|----------------------------|
--5---------------------|--9-------------------------|
----7---9---7---5---7---|----10---12---10---9---10---|
------0---0---0---0---0-|-------0----0----0---0----0-|


  S  S S  S S  S S S S  S S    S  S S  S S  S S S S  S S  
----------------------------|----------------------------|
--9-------------------------|--9-------------------------|
----10---12---10---9---10---|----10---12---10---9---10---|
-------0----0----0---0----0-|-------0----0----0---0----0-|


  S  S S  S S  S S S S  S S    E  S S S S S S S S S S E  S S  
----------------------------|--------------------------------|
--9-------------------------|--------------------------------|
----10---12---10---9---10---|--------------------------------|
-------0----0----0---0----0-|--0--0-0-0-0---0---0---0-L--0-0-|


  E  S S S S S S S S S S E  S S    E  S S S S S S S S S S E  S S  
--------------------------------|--------------------------------|
--------------------------------|--------------------------------|
--1--1-1-1-1---1---1---1-L--1-1-|--------------------------------|
--------------------------------|--2--2-2-2-2---2---2---2-L--2-2-|


  E  S S S S S S S S S  S S S E      E  S S S S S S S S S S E  S S  
----------------------------------|--------------------------------|
---------------------5s-7-L-5-4\--|--------------------------------|
-------------------5--------------|--------------------------------|
--3--3-3-3-3---3------------------|--0--0-0-0-0---0---0---0-L--0-0-|


  E  S S S S S S S S S S E  S S    E  S S S S S S S S S S E  S S  
--------------------------------|--------------------------------|
--------------------------------|--------------------------------|
--1--1-1-1-1---1---1---1-L--1-1-|--------------------------------|
--------------------------------|--2--2-2-2-2---2---2---2-L--2-2-|


  E  S S S S S S S S S  S S S E      S S S S S  S S  S S  S S   S  Q      
----------------------------------|---------------8----8-11-8h-----------|
---------------------5s-7-L-5-4\--|------7---7-10---10---------10-10\----|
-------------------5--------------|--6-9---9-----------------------------|
--3--3-3-3-3---3------------------|--------------------------------------|


  W                     W                   W                 
-------------------|---------------------|-------------------|
-------------------|---------------------|-------------------|
-------------------|--5g7----------------|-------------------|
--0----------------|---------------------|--0----------------|


    W                     E  S S S S S S S S S S S S S S  
---------------------||----------------------------------|
---------------------||*---------------------------------|
--5g7----------------||*---------5-----------2-----------|
---------------------||---0--0-3---0-3-5-0-3---0-3-2-5-3-|


  E  S S S S S S S S S S S S S S    E  S S S S S S S S S S S S S S  
---------------------------------|---------------------------------|
---------------------------------|---------------------------------|
---------5-----------2-----------|---------5-----------2-----------|
--0--0-3---0-3-5-0-3---0-5-3-5-3-|--0--0-3---0-3-5-0-3---0-3-2-5-3-|


  E  S S S S S S S S S S S S S S       E  S S S S S S S S S S S S S S  
----------------------------------||----------------------------------|
---------------------------------*||*---------------------------------|
---------5-----------2-----------*||*---------5-----------2-----------|
--0--0-3---0-3-5-0-3---0-5-3-5-3--||---0--0-3---0-3-5-0-3---0-3-2-5-3-|


  E  S S S S S S S S S S S S S S    E  S S S S S S S S S S S S S S  
---------------------------------|---------------------------------|
---------2-----------------------|---------------------------------|
--0--0-3---0-3-5-0-2-3-0-2-0-----|---------5-----------2-----------|
-----------------------------3-2-|--0--0-3---0-3-5-0-3---0-3-2-5-3-|


  E  S S S S S S S S S S S S S S      E  S S S S S S S S S S S S S S  
----------------------------------||---------------------------------|
---------2-----------------------*||---------------------------------|
--0--0-3---0-3-5-0-2-3-0-2-0-----*||---------5-----------2-----------|
-----------------------------3-2--||--0--0-3---0-3-5-0-3---0-3-2-5-3-|


  E  S S S S S S S S S S S S S S      E  S S S S S S S S S S S S S S  
---------------------------------||----------------------------------|
---------------------------------||*---------------------------------|
---------5-----------2-----------||*---------5-----------2-----------|
--0--0-3---0-3-5-0-3---0-5-3-5-3-||---0--0-3---0-3-5-0-3---0-3-2-5-3-|


  E  S S S S S S S S S S S S S S    E  S S S S S S S S S S S S S S  
---------------------------------|---------------------------------|
---------2-----------------------|---------------------------------|
--0--0-3---0-3-5-0-2-3-0-2-0-----|---------5-----------2-----------|
-----------------------------3-2-|--0--0-3---0-3-5-0-3---0-3-2-5-3-|


  E  S S S S S S S S S S S S S S      E  S S S S S S S S S S S S S S  
----------------------------------||---------------------------------|
---------2-----------------------*||---------------------------------|
--0--0-3---0-3-5-0-2-3-0-2-0-----*||---------5-----------2-----------|
-----------------------------3-2--||--0--0-3---0-3-5-0-3---0-3-2-5-3-|


  E  S S S S S S S S S S S S S S    E  S S S S S S S S S S S E.   
---------------------------------|-------------------------------|
---------------------------------|---------0-2-----2-----2---2---|
---------5-----------2-----------|-------------------------------|
--0--0-3---0-3-5-0-3---0-5-3-5-3-|--0--0-0-----0-0---0-0---0-----|


  E  E  S S S S E  S S S E  S    S S S S S S S S S S S S S S S S  
------------------------------|----------------------------------|
--------0-2-----2----2---2----|----------------------------------|
------------------------------|----------------5-L-5-5-5-5-5-5---|
--0--0------0-0----0---0----2-|--L-2-2-2-2-2-2-----------------0-|


  E  S S S S S S S S S S S E.     E  S S S S S S S S S S S E.   
-------------------------------|-------------------------------|
---------0-2-----2-----2---2---|---------0-2-----2-----2---2---|
-------------------------------|-------------------------------|
--L--0-0-----0-0---0-0---0-----|--0--0-0-----0-0---0-0---0-----|


  E  E  S S S S E  S S S E  S    S S S S S S S S S S S S S S S S  
------------------------------|----------------------------------|
--------0-2-----2----2---2----|----------------------------------|
------------------------------|----------------5-L-5-5-5-5-5-5---|
--0--0------0-0----0---0----2-|--L-2-2-2-2-2-2-----------------0-|


  E  S S S S S S S S S S S E.     E  S S S S S S S S S S S S S S  
-------------------------------|---------------------------------|
---------0-2-----2-----2---2---|---------2-2-----------2---2-----|
-------------------------------|---------------------------------|
--L--0-0-----0-0---0-0---0-----|--0--0-0-----0-0-0-0-0---0---0-0-|


  E  S S S S S S S S S S S S S S    S S S S S S S S S S S S S S S S  
---------------------------------|----------------------------------|
---------2-2-----------2---2-----|----------------------------------|
---------------------------------|----------------------------------|
--0--0-0-----0-0-0-0-0---0---0-2-|--L-2-2-2-2-2-2-2-L-2-2-2-2-2-2-3-|


  S S S S S S S S S S S S S S S S    E  S S S S S S S S S S S S S S  
----------------------------------|---------------------------------|
----------------------------------|---------2-2-----------2---2-----|
----------------------------------|---------------------------------|
--L-3-3-3-3-3-3-5-L-5-5-5-5-5-5-5-|--0--0-0-----0-0-0-0-0---0---0-0-|


  E  S S S S S S S S S S S S S S    S S S S S S S S S S S S S S S S  
---------------------------------|----------------------------------|
---------2-2-----------2---2-----|----------------------------------|
---------------------------------|----------------5-L-5-5-5-5-5-5---|
--0--0-0-----0-0-0-0-0---0---0-0-|--L-2-2-2-2-2-2-----------------0-|


                                            |--3--|               
  E  S S S S S S S S S S S S S S    Q.      S  S  S  E.   S Q     
---------------------------------|-----------------------16-L----|
---------2-2-----------2---2-----|------------14-16-17-----------|
---------------------------------|---------14--------------------|
--L--0-0-----0-0-0-0-0---0---0-0-|--0----------------------------|


                      |----3---|          
  E.   S  S  S  S  S  E    E   E   Q      
---------15----17----17s--19--19--19\----|
------15----15----15---------------------|
-----------------------------------------|
-----------------------------------------|


  E.   S  S  S  S  S  S  S  S   S Q     
---------11----12----14----14s-17-L----|
------10----10----10----10-------------|
---------------------------------------|
---------------------------------------|


   |---3---|   |---3---|                    
   E   E   E   E   E   E   S   S   E  Q     
--16--12------12---------------------------|
----------12------12-----------------------|
----------------------15--14s-15s-14--L----|
-------------------------------------------|


          |--3--|  |--3--|  |--|         
  Q.      S  S  S  S  S  S  S  E   Q     
---------------------------16-19---L----|
------------14-16-17-14-17--------------|
---------14-----------------------------|
----------------------------------------|


      |---3---|          |--3--|                |----3----|                
  E   S   S   S  Q.      S  S  S  Q       Q     E    E    E   Q     Q      
--L--17h-19p-17-15------15-17-15-14----|-------14h--15h--16--17-----------|
---------------------------------------|---------------------------16~----|
---------------------------------------|----------------------------------|
---------------------------------------|----------------------------------|


                                                         Song Continues...   
   |---3---|   |---3---|   |---3---|   |--3--|                               
   E   E   E   E   E   E   E   E   E   S  S  S  S   S    W                   
--17--------------15--------------14------------------|--------------------||
------14--15--16------14--15--16----------------------|--------------------||
-----------------------------------------12-14-15s-14-|--------------------||
--------------------------------------14--------------|--0-----------------||




Duration Legend
---------------
W - whole
H - half
Q - quarter
E - 8th
S - 16th
T - 32nd
X - 64th
. - note dotted
|-n-|  - n-tuplets


Tablature Legend
----------------
L - tied note
x - dead note
g - grace note
(n) - ghost note
> - accentuded note
NH - natural harmonic
AH - artificial harmonic
TH - tapped harmonic
SH - semi harmonic
PH - pitch harmonic
h - hammer on
p - pull off
b - bend
br - bendRelease
pb - preBend
pbr - preBendRelease
brb - bendReleaseBend
\n/ - tremolo bar dip
\n - tremolo bar dive
-/n - tremolo bar Release up
/n\ - tremolo bar inverted dip
/n - tremolo bar return
-\n - tremolo bar Release down
S - shift slide
s - legato slide
/ -  slide into from below or out of upwards
\ -  slide into from above or out of downwards
~ - vibrato
W - wide vibrato
tr - trill
TP - tremolo picking
T - tapping
S - slap
P - pop
< - fade in
^ - brush up
v - brush down

            
            
Suggest correction
Creating personal tab
Creating personal tab
You can edit any tab online and save it as your Personal.

You can edit, replace or remove any tab part or add personal notes – all changes will be seen only by you.

Personal tabs can be accessed anytime from any device, even offline.
Learn more »
Give kudos to tab author, rate the tab!
1 2 3 4 5
comments
print report bad tab
guest
You may want to rate the tab now too:
select rating
Wanna post a correction for this tab? Suggest correction