Oops, an error
Loading. Please wait.

Alesund Tab

version 1
version 1

Intro

Interactive

34,274 views 120 this week
4 commentsread comments
1 2 3 4 5
excellent!
x 7
add to favorites
launch autoscroll
font size
0
reset
how to read this tab
guitar tuner
Tab Pro tools
  • play this tab
  • loop segment
  • change instrument
  • show fretboard
  • metronome
×
Best way to learn
"Alesund"
Autoscroll
slow
fast
+/-
esc
set tempo
stop
Contributor
Difficulty
Capo
intermediate
1st fret
Title: Alesund
Artist: Sun Kil Moon
Album: Admiral Fell Promises (2010)

This was pretty hard to tab, because I didn't know the tuning. I tried 3 other tunings 
this seems the right one...

Tuning: special tuning: C#G#C#D#A#C
or you can tune CGCDAB with capo on 1st fret

 C|------3----7----5----|------7----12---10---|-8----7----8---------|-12---7----10---3----|
A#|---------------------|---------------------|---------------------|---------------------|
D#|---------------------|---------------------|---------------------|-10---5----8----1----|
C#|-0----3----7----7----|-0----7----12---12---|---------------------|---------------------|
G#|---------------------|---------------------|---------------------|---------------------|
C#|---------------------|---------------------|---------------------|-9----4----7----0----|


 C|------4----8----6----|------8----13---11---|-9----8----9---------|-13---8----11---3----|
A#|---------------------|---------------------|---------------------|---------------------|
D#|---------------------|------5----10---11---|---------------------|-11---6----9----1----|
C#|-0----3----7----8----|-0-------------------|---------------------|---------------------|
G#|---------------------|---------------------|---------------------|---------------------|
C#|---------------------|---------------------|---------------------|-10---5----8----0----|


 C|-----------------|------3--------------|---------------------|-----------------|
A#|-------0----1----|-3---------3----1----|-0----1----3---------|-----------------|
D#|-----------------|---------------------|---------------------|-----------------|
C#|-3---------------|---------------------|---------------------|-----------------|
G#|-----------------|---------------------|---------------------|-------2----3----|
C#|-----------------|---------------------|---------------------|-3---------------|


 C|---------------------|---------------------|---------------------|-8----3----12---7----|
A#|---------------------|---------------------|---------------------|-8----3----12---7----|
D#|---------------------|---------------------|---------------------|---------------------|
C#|-0----2----0---------|-----------0---------|---------------------|-8----3----12---7----|
G#|----------------3----|-2----3--------------|---------------------|---------------------|
C#|---------------------|---------------------|---------------------|---------------------|


 C|--------------0-------------|---------0---------------------0---|-------------------0--------|
A#|-2--------0-----------------|-----0---------------------0-------|---------------0------------|
D#|------------------7----9----|-----------------------------------|-10---9----------------4----|
C#|----------------------------|------------------2----------------|----------------------------|
G#|----------------------------|-------------0---------------------|----------------------------|
C#|------0---------------------|-0---------------------0-----------|-----------0----------------|


 C|--------------0-------------|---------0---------------------0---|---------------------|
A#|----------0-----------------|-----0---------------------0-------|---------------------|
D#|-5----------------0----2----|-----------------------------------|---------------------|
C#|----------------------------|------------------2----------------|-4---------0---------|
G#|----------------------------|-------------0---------------------|---------------------|
C#|------0---------------------|-0---------------------0-----------|------0--------------|


 C|-8----7----7----3----|-5----5----5----5----|-5----5----0----0----|-12---10---10---7----|
A#|---------------------|---------------------|---------------------|---------------------|
D#|-9-------------------|----------------0----|---------------------|---------------------|
C#|---------------------|-----------0---------|-0-------------------|---------------------|
G#|---------------------|------0--------------|------0---------0----|---------------------|
C#|---------------------|-0-------------------|-----------0---------|---------------------|


 C|-8----8----3----5----|---------------------|---------------------|---------------------|
A#|---------------------|---------------------|---------------------|-3----2----2----3----|
D#|---------------------|-----------0---------|----------------3----|-----------0----0----|
C#|---------------------|------0---------0----|-----------2---------|-----------4----5----|
G#|---------------------|-0-------------------|-0----1--------------|-----------0----0----|
C#|----------------0----|---------------------|---------------------|---------------------|


 C|-------------|
A#|-------------|
D#|-5-----------|
C#|-0-----------|
G#|-0-----------|
C#|-0-----------|
comments
print report bad tab
4 comments total. Showing first comments.
0 reply
Smyrna Ace wrote on August 29 2010, 09:23 pm

Well done kasper! By all means, please continue----

0 reply
ReusableCatMilk wrote on November 25 2010, 05:02 pm

Great job, I'd love to learn the rest... but this will take me quite some time to master myself. So take your time :)

0 reply
VincentLauw wrote on January 2 2011, 11:37 pm

This is amazing! Thanks. I'd love to see you post the rest sometime, but the tuning and everything is great already so I can learn it by ear. Gonna take a loooong time probably. Cheers

I want to post or [tab]
guest
You may want to rate the tab now too:
select rating
Please do not post tabs as comments. Select "correction" instead!