Oops, an error
Loading. Please wait.

Alesund tab

version 1
version 1

Whole song

Interactive

3,904 views 141 this week
1 commentread comment
1 2 3 4 5
1 last vote to show rating
add to favorites
×
Save as Personal and add changes to this tab that will be seen only by you. Learn more ›
×
You can save this tab as Personal to edit and correct it or add notes. All changes will be seen only by you. Learn more »
launch autoscroll
font size
0
reset
how to read this tab
guitar tuner
edit
Autoscroll
slow
fast
+/-
esc
set tempo
stop
Tempo = 180BPM
Tuning: CGCDAB with capo on 1st fret, or without capo capo C#G#C#D#A#C

[Intro 1]
B|-----3--7--5----|-----7--12-10---|--8h-7--8-------|--12-7--10-3----|
A|----------------|----------------|----------------|----------------|
D|----------------|----------------|----------------|--10-5--8--1----|
C|--0--3--7--7----|--0--7--12-12---|----------------|----------------|
G|----------------|----------------|----------------|----------------|
C|----------------|----------------|----------------|--9--4--7--0----|

B|-----4--8--6----|-----8--13-11---|--9h-8--9-------|--13-8--11-3----|
A|----------------|----------------|----------------|----------------|
D|----------------|----------------|----------------|--11-6--9--1----|
C|--0--3--7--8----|--0--7--12-13---|----------------|----------------|
G|----------------|----------------|----------------|----------------|
C|----------------|----------------|----------------|--10-5--8--0----|

B|----------------|-----3----------|----------------|----------------|
A|--------0--1----|--3-----3--1----|--0--1--3-------|----------------|
D|----------------|----------------|----------------|----------------|
C|--3-------------|----------------|----------------|----------------|
G|----------------|----------------|----------------|--------2--3----|
C|----------------|----------------|----------------|--3-------------|

B|----------------|----------------|----------------|--8--3--12-7----|
A|----------------|----------------|----------------|--8--3--12-7----|
D|----------------|----------------|----------------|----------------|
C|--0--2--0-------|--------0-------|----------------|--8--3--12-7----|
G|-----------3----|--2--3----------|----------------|----------------|
C|----------------|----------------|----------------|----------------|

[Intro 2]
B|-----------------0----------------------|
A|--------------0-------------------------|
D|--9-----------------7--------9----------|
C|----------------------------------------|
G|----------------------------------------|
C|-----------0----------------------------|

B|--------0--------------------------0----|
A|-----0--------------------------0-------|
D|----------------------------------------|
C|--------------------2-------------------|
G|-----------0----------------------------|
C|--0--------------------------0----------|

B|--------------------------0-------------|
A|-----------------------0----------------|
D|--10-------9-----------------4----------|
C|----------------------------------------|
G|----------------------------------------|
C|--------------------0-------------------|

B|-----------------0----------------------|
A|--------------0-------------------------|
D|--5-----------------0--------2----------|
C|----------------------------------------|
G|----------------------------------------|
C|-----------0----------------------------|

B|--------0--------------------------0----|----------------|--8--7--7s-3s---|
A|-----0--------------------------0-------|----------------|----------------|
D|----------------------------------------|--2-------------|--9g------------|
C|--------------------2-------------------|--------0-------|----------------|
G|-----------0----------------------------|----------------|----------------|
C|--0--------------------------0----------|-----0----------|----------------|

  =  =  =  =       =  =  =  =                                 =
B|--5--5--5--5----|--5--5--0--0----|--12-10-10-7----|--8--8--3--5----|
A|----------------|----------------|----------------|----------------|
D|-----------0----|----------------|----------------|----------------|
C|--------0-------|--0-------------|----------------|----------------|
G|-----0----------|-----0-----0----|----------------|----------------|
C|--0-------------|--------0-------|----------------|-----------0----|

B|--5--5--5--5----|--5-------------|----------------|----------|
A|----------------|----------------|--3--2--2--3----|--3-------|
D|--------0-------|-----------3----|--------0--0----|--5-------|
C|-----0-----0----|--------2-------|--------4--5----|--0-------|
G|--0-------------|--0--1----------|--------0--0----|--0-------|
C|----------------|----------------|----------------|--0-------|

[Intro 3]
B|----------------0-------------|-----------------0-------------|
A|-------------0----------------|--------------0----------------|
D|o------------------10---------|--------------------5----------|
C|o-----------------------------|-------------------------------|
G|----------9-------------------|-----------4-------------------|
C|-9----------------------------|--4----------------------------|

B|-----------------0-------------|-----------------0-------------|
A|--------------0----------------|--------------0----------------|
D|--------------------2----------|--0----------------------------|
C|-------------------------------|--------------------0----------|
G|-----------0-------------------|-----------0-------------------|
C|--0----------------------------|-------------------------------|

B|-----------------0-------------|-----------------0-------------|
A|--------------0----------------|--------------0----------------|
D|-------------------------------|-------------------------------|
C|--------------------0----------|--------------------0----------|
G|-----------4-------------------|-----------5-------------------|
C|--4----------------------------|--5----------------------------|

B|-----------------0-------------|-----------------0------------|
A|--------------0----------------|--------------0---------------|
D|-------------------------------|--0--------------------------o|
C|--------------------0----------|--------------------0--------o|
G|-----------9-------------------|-----------0------------------|
C|--9----------------------------|------------------------------|

[Verse]
B|----------------0-------------|-----------------0-------------|
A|-------------0----------------|--------------0----------------|
D|o------------------10---------|--------------------5----------|
C|o-----------------------------|-------------------------------|
G|----------9-------------------|-----------4-------------------|
C|-9----------------------------|--4----------------------------|
   No this is not my guitar...

B|-----------------0-------------|-----------------0-------------|
A|--------------0----------------|--------------0----------------|
D|--------------------2----------|--0----------------------------|
C|-------------------------------|--------------------0----------|
G|-----------0-------------------|-----------0-------------------|
C|--0----------------------------|-------------------------------|

B|-----------------0-------------|-----------------0-------------|
A|--------------0----------------|--------------0----------------|
D|-------------------------------|-------------------------------|
C|--------------------0----------|--------------------0----------|
G|-----------4-------------------|-----------5-------------------|
C|--4----------------------------|--5----------------------------|

B|-----------------0-------------|-----------------0------------|
A|--------------0----------------|--------------0---------------|
D|-------------------------------|--0--------------------------o|
C|--------------------0----------|--------------------0--------o|
G|-----------9-------------------|-----------0------------------|
C|--9----------------------------|------------------------------|

[Chorus]
B|-----------------0-------------|----------------0-------------|
A|--------------0----------------|-------------0----------------|
D|--0----------------------------|o-----------------------------|
C|-------------------------------|o------------------0----------|
G|--------------------0----------|----------0-------------------|
C|-----------9-------------------|-4----------------------------|
                                    Up here in the air...

B|-----------------0-------------|-----------------0-------------|
A|--------------0----------------|--------------0----------------|
D|--0----------------------------|-------------------------------|
C|--------------------0----------|--------------------0----------|
G|-----------0-------------------|-----------5-------------------|
C|-------------------------------|--5----------------------------|

B|-----------------0-------------|-----------------0-------------|
A|--------------0----------------|--------------0----------------|
D|--0----------------------------|-------------------------------|
C|--------------------0----------|--------------------0----------|
G|-------------------------------|-----------9-------------------|
C|-----------5-------------------|--9----------------------------|

B|-----------------0-------------|-----------------0-------------|
A|--------------0----------------|--------------0----------------|
D|--0----------------------------|-------------------------------|
C|--------------------0----------|--------------------0----------|
G|-------------------------------|-----------5-------------------|
C|-----------9-------------------|--5----------------------------|

B|-----------------0------------|-----------------0-------------|
A|--------------0---------------|--------------0----------------|
D|--0--------------------------o|-------------------------------|
C|--------------------0--------o|--------------------0----------|
G|-----------5------------------|-----------9-------------------|
C|------------------------------|--9----------------------------|

B|-----------------0-------------|-----------------0-------------|
A|--------------0----------------|--------------0----------------|
D|-------------------------------|-------------------------------|
C|-----------0-------------------|--------------------0----------|
G|--------------------5----------|-----------5-------------------|
C|--9----------------------------|--5----------------------------|

B|-----------------0-------------|----------------0-------------|
A|--------------0----------------|-------------0----------------|
D|-------------------------------|o------------------10---------|
C|--------------------0----------|o-----------------------------|
G|-----------0-------------------|----------9-------------------|
C|--5----------------------------|-9----------------------------|

B|-----------------0-------------|-----------------0-------------|
A|--------------0----------------|--------------0----------------|
D|--------------------5----------|--------------------2----------|
C|-------------------------------|-------------------------------|
G|-----------4-------------------|-----------0-------------------|
C|--4----------------------------|--0----------------------------|

B|-----------------0-------------|-----------------0-------------|
A|--------------0----------------|--------------0----------------|
D|--0----------------------------|-------------------------------|
C|--------------------0----------|--------------------0----------|
G|-----------0-------------------|-----------4-------------------|
C|-------------------------------|--4----------------------------|

B|-----------------0-------------|-----------------0-------------|
A|--------------0----------------|--------------0----------------|
D|-------------------------------|-------------------------------|
C|--------------------0----------|--------------------0----------|
G|-----------5-------------------|-----------9-------------------|
C|--5----------------------------|--9----------------------------|

[Verse]
B|-----------------0------------|----------------0-------------|
A|--------------0---------------|-------------0----------------|
D|--0--------------------------o|o------------------10---------|
C|--------------------0--------o|o-----------------------------|
G|-----------0------------------|----------9-------------------|
C|------------------------------|-9----------------------------|
                                    I came down from the room...

B|-----------------0-------------|-----------------0-------------|
A|--------------0----------------|--------------0----------------|
D|--------------------5----------|--------------------2----------|
C|-------------------------------|-------------------------------|
G|-----------4-------------------|-----------0-------------------|
C|--4----------------------------|--0----------------------------|

B|-----------------0-------------|-----------------0-------------|
A|--------------0----------------|--------------0----------------|
D|--0----------------------------|-------------------------------|
C|--------------------0----------|--------------------0----------|
G|-----------0-------------------|-----------4-------------------|
C|-------------------------------|--4----------------------------|

B|-----------------0-------------|-----------------0-------------|
A|--------------0----------------|--------------0----------------|
D|-------------------------------|-------------------------------|
C|--------------------0----------|--------------------0----------|
G|-----------5-------------------|-----------9-------------------|
C|--5----------------------------|--9----------------------------|

B|-----------------0------------|-----------------0-------------|
A|--------------0---------------|--------------0----------------|
D|--0--------------------------o|--0----------------------------|
C|--------------------0--------o|-------------------------------|
G|-----------0------------------|--------------------0----------|
C|------------------------------|-----------9-------------------|

[Chorus]
B|----------------0-------------|-----------------0-------------|
A|-------------0----------------|--------------0----------------|
D|o-----------------------------|--0----------------------------|
C|o------------------0----------|--------------------0----------|
G|----------0-------------------|-----------0-------------------|
C|-4----------------------------|-------------------------------|
   Your calm hypnotic eyes...

B|-----------------0-------------|-----------------0-------------|
A|--------------0----------------|--------------0----------------|
D|-------------------------------|--0----------------------------|
C|--------------------0----------|--------------------0----------|
G|-----------5-------------------|-------------------------------|
C|--5----------------------------|-----------5-------------------|

B|-----------------0-------------|-----------------0-------------|
A|--------------0----------------|--------------0----------------|
D|-------------------------------|--0----------------------------|
C|--------------------0----------|--------------------0----------|
G|-----------9-------------------|-------------------------------|
C|--9----------------------------|-----------9-------------------|

B|-----------------0-------------|-----------------0------------|
A|--------------0----------------|--------------0---------------|
D|-------------------------------|--0--------------------------o|
C|--------------------0----------|--------------------0--------o|
G|-----------5-------------------|-----------5------------------|
C|--5----------------------------|------------------------------|

B|-----------------0-------------|-----------------0-------------|
A|--------------0----------------|--------------0----------------|
D|-------------------------------|-------------------------------|
C|--------------------0----------|-----------0-------------------|
G|-----------9-------------------|--------------------5----------|
C|--9----------------------------|--9----------------------------|

B|-----------------0-------------|-----------------0-------------|
A|--------------0----------------|--------------0----------------|
D|-------------------------------|-------------------------------|
C|--------------------0----------|--------------------0----------|
G|-----------5-------------------|-----------0-------------------|
C|--5----------------------------|--5----------------------------|

B|-----------------0-------------|-----------------0-------------|
A|--------------0----------------|--------------0----------------|
D|-------------------------------|-------------------------------|
C|--------------------0----------|--------------------0----------|
G|-----------0-------------------|-----------9-------------------|
C|--4----------------------------|--9----------------------------|
   Mmmmmmmm.

B|-----------------0-------------|-----------------0-------------|
A|--------------0----------------|--------------0----------------|
D|-------------------------------|-------------------------------|
C|-----------4--------0----------|-----------2--------0----------|
G|-------------------------------|-------------------------------|
C|--5----------------------------|--4----------------------------|

B|-----------------0-------------|-----------------0-------------|
A|--------------0----------------|--------------0----------------|
D|-------------------------------|-------------------------------|
C|--------------------0----------|--------------------0----------|
G|-----------5-------------------|-----------0-------------------|
C|--2----------------------------|--0----------------------------|

B|-----------------0-------------|-----------------0-------------|
A|--------------0----------------|--------------0----------------|
D|-------------------------------|-------------------------------|
C|--------------------0----------|-----------4--------0----------|
G|-----------9-------------------|-------------------------------|
C|--9----------------------------|--5----------------------------|

B|-----------------0-------------|-----------------0-------------|
A|--------------0----------------|--------------0----------------|
D|-------------------------------|-------------------------------|
C|-----------2--------0----------|--------------------0----------|
G|-------------------------------|-----------0-------------------|
C|--4----------------------------|--0----------------------------|

[Verse]
B|----------------0-------------|-----------------0-------------|
A|-------------0----------------|--------------0----------------|
D|o-----------------------------|--0----------------------------|
C|o------------------0----------|--------------------0----------|
G|----------0-------------------|-----------0-------------------|
C|-4----------------------------|-------------------------------|
   Tonight you were my muse...

B|-----------------0-------------|-----------------0-------------|
A|--------------0----------------|--------------0----------------|
D|-------------------------------|--0----------------------------|
C|--------------------0----------|--------------------0----------|
G|-----------5-------------------|-------------------------------|
C|--5----------------------------|-----------5-------------------|

B|-----------------0-------------|-----------------0-------------|
A|--------------0----------------|--------------0----------------|
D|-------------------------------|--0----------------------------|
C|--------------------0----------|--------------------0----------|
G|-----------9-------------------|-------------------------------|
C|--9----------------------------|-----------9-------------------|

B|-----------------0-------------|-----------------0------------|
A|--------------0----------------|--------------0---------------|
D|-------------------------------|--0--------------------------o|
C|--------------------0----------|--------------------0--------o|
G|-----------5-------------------|-----------5------------------|
C|--5----------------------------|------------------------------|

B|-----------------0-------------|-----------------0-------------|
A|--------------0----------------|--------------0----------------|
D|-------------------------------|-------------------------------|
C|--------------------0----------|-----------0-------------------|
G|-----------9-------------------|--------------------5----------|
C|--9----------------------------|--9----------------------------|

B|-----------------0-------------|-----------------0-------------|
A|--------------0----------------|--------------0----------------|
D|-------------------------------|-------------------------------|
C|--------------------0----------|--------------------0----------|
G|-----------5-------------------|-----------0-------------------|
C|--5----------------------------|--5----------------------------|

B|-----------------0-------------|-----------------0-------------|
A|--------------0----------------|--------------0----------------|
D|-------------------------------|-------------------------------|
C|--------------------0----------|--------------------0----------|
G|-----------0-------------------|-----------9-------------------|
C|--4----------------------------|--9----------------------------|
    Mmmm...

B|-----------------0-------------|-----------------0-------------|
A|--------------0----------------|--------------0----------------|
D|-------------------------------|-------------------------------|
C|-----------4--------0----------|-----------2--------0----------|
G|-------------------------------|-------------------------------|
C|--5----------------------------|--4----------------------------|

B|-----------------0-------------|-----------------0-------------|
A|--------------0----------------|--------------0----------------|
D|-------------------------------|-------------------------------|
C|--------------------0----------|--------------------0----------|
G|-----------5-------------------|-----------0-------------------|
C|--2----------------------------|--0----------------------------|

B|-----------------0-------------|-----------------0-------------|
A|--------------0----------------|--------------0----------------|
D|-------------------------------|-------------------------------|
C|--------------------0----------|-----------4--------0----------|
G|-----------9-------------------|-------------------------------|
C|--9----------------------------|--5----------------------------|

B|-----------------0-------------|-----------------0-------------|
A|--------------0----------------|--------------0----------------|
D|-------------------------------|-------------------------------|
C|-----------2--------0----------|--------------------0----------|
G|-------------------------------|-----------0-------------------|
C|--4----------------------------|--0----------------------------|

[Outro]
B|-----------------3-------------|-----------------3-------------|
A|--------------0----------------|--------------0----------------|
D|--------------------3----------|-----------3--------3----------|
C|-----------2-------------------|--0----------------------------|
G|-------------------------------|-------------------------------|
C|--2----------------------------|-------------------------------|
   Alesund...

B|-----------------3-------------|-----------------3-------------|
A|--------------0----------------|--------------0----------------|
D|--------------------3----------|-----------3-------------------|
C|-----------2-------------------|--0-----------------0----------|
G|-------------------------------|-------------------------------|
C|--2----------------------------|-------------------------------|

B|-----------------0-------------|-----------------0-------------|
A|--------------0----------------|--------------0----------------|
D|--------------------2----------|--------------------2----------|
C|-----------0-------------------|-----------0-------------------|
G|-------------------------------|--0----------------------------|
C|--0----------------------------|-------------------------------|

B|-----------------0-------------|-----------------0-------------|
A|--------------0----------------|--------------0----------------|
D|-------------------------------|-------------------------------|
C|--------------------0----------|-----------0--------0----------|
G|-----------0-------------------|--0----------------------------|
C|--0----------------------------|-------------------------------|

B|-----------------8-------------|-----------------10------------|
A|--------------7----------------|--------------8----------------|
D|--------------------0----------|--------------------0----------|
C|-----------0-------------------|-----------0-------------------|
G|--0----------------------------|--0----------------------------|
C|-------------------------------|-------------------------------|

B|-----------------8-------------|-----------------10------------|
A|--------------7----------------|--------------8----------------|
D|--------------------0----------|--------------------0----------|
C|-----------0-------------------|-----------0-------------------|
G|--0----------------------------|--0----------------------------|
C|-------------------------------|-------------------------------|

B|-----------------8-------------|-----------------10------------|
A|--------------7----------------|--------------8----------------|
D|--------------------0----------|--------------------0----------|
C|-----------0-------------------|-----------0-------------------|
G|-------------------------------|-------------------------------|
C|--0----------------------------|--0----------------------------|

B|-----------------8-------------|-----------------10------------|
A|--------------7----------------|--------------8----------------|
D|--------------------0----------|--------------------0----------|
C|-----------0-------------------|-----------0-------------------|
G|-------------------------------|-------------------------------|
C|--0----------------------------|--0----------------------------|


************************************

| h  Hammer-on
| g  Grace note 

************************************

            
            
Suggest correction
Creating personal tab
Creating personal tab
You can edit any tab online and save it as your Personal.

You can edit, replace or remove any tab part or add personal notes – all changes will be seen only by you.

Personal tabs can be accessed anytime from any device, even offline.
Learn more »
Give kudos to tab author, rate the tab!
1 2 3 4 5
comments
print report bad tab
1 comment total.
0 reply
joaaaaa 10 Sep 06, 2017 01:30 PM

your Tab is really amazing, i saw a lot of then of this music but this one is by far the best.

Thanks alot and keep up the good work :)

guest
You may want to rate the tab now too:
select rating
Wanna post a correction for this tab? Suggest correction