Oops, an error
Loading. Please wait.

Carry Me Ohio Bass Tab

88 views 1 this week
no commentswrite comment
1 2 3 4 5
3 more votes to show rating
add to favorites
launch autoscroll
font size
0
reset
guitar tuner
×
Best way to learn
"Carry Me Ohio"
Autoscroll
slow
fast
+/-
esc
set tempo
stop
Author
Difficulty
[Intro]
G|------------------------|------------------------| (x2)
D|6----8---------7/9-9-8--|6----8---------7/9-9-8--|
A|----------9------------9|----------9------------9|
E|------------------------|------------------------|

[Verse 1]
G|------------------------|------------------------| (x8)
D|6----8---------7/9-9-8--|6----8---------7/9-9-8--|
A|----------9------------9|----------9------------9|
E|------------------------|------------------------|

[Chorus]
G|-----6----8----8--8-6|9-----8--------6------|
D|9--------------------|------------9----8--8-|
A|---------------------|----9-----9-----------|
E|---------------------|----------------------|

[Interlude]
G|------------------------|------------------------| (x2)
D|6----8---------7/9-9-8--|6----8---------7/9-9-8--|
A|----------9------------9|----------9------------9|
E|------------------------|------------------------|

[Verse 2]
G|------------------------|------------------------| (x6)
D|6----8---------7/9-9-8--|6----8---------7/9-9-8--|
A|----------9------------9|----------9------------9|
E|------------------------|------------------------|

[Chorus]
G|-----6----8----8--8-6|9-----8--------6------|
D|9--------------------|------------9----8--8-|
A|---------------------|----9-----9-----------|
E|---------------------|----------------------|

[Interlude]
G|------------------------|------------------------| (x2)
D|6----8---------7/9-9-8--|6----8---------7/9-9-8--|
A|----------9------------9|----------9------------9|
E|------------------------|------------------------|

[Verse 3]
G|------------------------|------------------------| (x10)
D|6----8---------7/9-9-8--|6----8---------7/9-9-8--|
A|----------9------------9|----------9------------9|
E|------------------------|------------------------|

[Chorus]
G|-----6----8----8--8-6|9-----8--------6------|
D|9--------------------|------------9----8--8-|
A|---------------------|----9-----9-----------|
E|---------------------|----------------------|

[Outro] (repeat until the end)
G|------------------------|------------------------| 
D|6----8---------7/9-9-8--|6----8---------7/9-9-8--|
A|----------9------------9|----------9------------9|
E|------------------------|------------------------|



*****************************

| / slide up

*****************************
Suggest correction
Give kudos to tab author, rate the tab!
1 2 3 4 5
comments
print report bad tab
guest
You may want to rate the tab now too:
select rating
Wanna post a correction for this tab? Suggest correction