Oops, an error
Loading. Please wait.

Carry Me Ohio Chords

version 1
version 1

Whole song

19,435 views 9 this week
1 commentread comment
1 2 3 4 5
worth learning
x 6
add to favorites
launch autoscroll
font size
0
reset
transpose
0
reset
display chords
guitar tuner
Tab Pro tools
  • play this tab
  • loop segment
  • change instrument
  • show fretboard
  • metronome
×
Best way to learn
"Carry Me Ohio"
Autoscroll
slow
fast
+/-
esc
set tempo
stop
Contributor
Capo
2nd fret
===========================================================
                     Sun Kil Moon - Carry Me Ohio
===========================================================


standard tuning capo 2
Seems there are no tabs for this, so this is how i spent my after noon.
my first shot on this song, i'm a uncertain if he use standard tuning, but it works pretty good.

intro/verse
E|-0--0--0-|
B|-0--0--0-|
G|-2--2--2-|
D|-2--2--2-|
A|-X--X--0-|
E|-2--4----|


chorus
E|-0--0--0--2--0--0--0-|
B|-0--0--0--3--3--2--0-|
G|-2--2--2--2--2--2--2-|
D|-2--2--2--0--0--2--2-|
A|-X--X--0--X--X--0--1-|
E|-2--4--X--X--X--X--0-|

it took me a while, thanks for looking up this music.
comments
print report bad tab
1 comment total.
0 reply
godofcheeky wrote on November 23 2010, 06:00 am

Thanks for this! I didn't have a clue where to begin.

May I say it works a little better on a single acoustic if you play the 'bass line':

E|---------------0-----0-----0-|
B|---------------0-----0-----0-|
G|---------------2-----2-----2-|
D|---------------2-----2-----2-|
A|----0----------X-----X-----0-|
E|-4-----4--0--2-2--4--4--0----|

Thanks again

I want to post or [tab]
guest
You may want to rate the tab now too:
select rating
Please do not post tabs as comments. Select "correction" instead!