Oops, an error
Loading. Please wait.

Heron Blue Tab

version 1
version 1

Intro

Solo

Whole song

Interactive

10,203 views 27 this week
no commentswrite comment
1 2 3 4 5
excellent!
x 1
add to favorites
launch autoscroll
font size
0
reset
how to read this tab
guitar tuner
Tab Pro tools
  • play this tab
  • loop segment
  • change instrument
  • show fretboard
  • metronome
Autoscroll
slow
fast
+/-
esc
set tempo
stop
Contributor
Sun Kil Moon - Heron Blue 'Solo'

Something To Keep you going, once i've done it all i'll post a sperate tab.
This is how close i can get simply by listening to it, im sorry if it
doesn't rise to anyone standards. Only one person has had a crack at parts of the song 
arent the main riff or arpeggio as i write this.

Tabbed By: Jack Sharp
Tuning:Standard
Brackets Are Optional Notes.


So as we all know the arpeggio goes like this(bottom e is optional):
Guitar 1, It continues through the whole song.
e|-------(3(3)3)3)3)3(3)3)3)3)3)3)3)3)3)-----------------------------------|
B|--------3-3-3-3-3-3-3-3-3-3-3-3-3-3-3------------------------------------|
G|-------2-2-2-2-2-2-2-2-2-2-2-2-2-2-2-------------------------------------|
D|-------------------------------------------------------------------------|
A|-------------------------------------------------------------------------|
E|-------------------------------------------------------------------------|

Guitar 3! (around 2:03 Seconds,Just listen if your struggling. Volume ajust Guitar 
1 if nessasary.)
e|--------------6-5-----2-3-----3-1-----3-5-2-3-1-3-2-3--------------------|
B|-3-3-3-3-3-3--3-3-3-3-3-3-3-3-3-3-3-3-3-3-3-3-3-3-3-3-3-3---1-2-------2-3|
G|-0-3-2-0-2-3------0-0-----0-0-----0-0-----------------0-0-------------0-0|
D|-----------------(0(0)---(0(0)---(0(0)---------------(0(0)---------------|
A|-------------------------------------------------------------------------|
E|-------------------------------------------------------------------------|
I've Just decided this part on my tab sounds too low ^


Then Its The Regular Pattern Of The main riff twice(previous tab)x2.

Then this twice. 02:22
e|------------------------------------------------------------------------|
B|--------------------------------------------13-15-13-15-----------------|
G|--------10-8-8h10--14-15--14-14-15-14-15-10--------------12--10---------|
D|--5-7-8-----------------------------------------------------------------|
A|------------------------------------------------------------------------|
E|------------------------------------------------------------------------|
comments
We did not receive enough feedback on this tab! Please rate:
print report bad tab
1 2 3 4 5
I want to post or [tab]
guest
You may want to rate the tab now too:
select rating
Please do not post tabs as comments. Select "correction" instead!