Oops, an error
Loading. Please wait.

Heron Blue Tab

version 3
version 3

Whole song

Interactive

6,660 views 1 this week
no commentswrite comment
1 2 3 4 5
1 last vote to show rating
add to favorites
launch autoscroll
font size
0
reset
how to read this tab
guitar tuner
Autoscroll
slow
fast
+/-
esc
set tempo
stop
Help us to improve Ultimate-Guitar.com Take our survey!
×
Author
sun kil moon - heron blue

the tabs allready on ultimate guitar are good, but missing things like the 'solo'
im only 12 so have mercy!!
heres what ive come up with:

(all through the song)
e|-------------------------------------------------------------------------|
B|-8-8-8-8-8-8-8-8-8-8-8-8-8-8-8-8-----------------------------------------|
G|7-7-7-7-7-7-7-7-7-7-7-7-7-7-7-7------------------------------------------|
D|-------------------------------------------------------------------------|
A|-------------------------------------------------------------------------|
E|-------------------------------------------------------------------------|

(main riff)

e|-------------------------------------------------------------------------|
B|-------------------------------------------------------------------------|
G|-------------------------------------------------------------------------|
D|---5--55--8--88-3-5-3-5----0--0------------------------------------------|
A|--------------------------3--3-------------------------------------------|
E|-------------------------------------------------------------------------|

(during start of solo - not sure)
e|---1--1--1--1--1--1--1--1------------------------------------------------|
B|---3--3--3--3--3--3--3--3------------------------------------------------|
G|--2--2--2--2--2--2--2--2-------------------------------------------------|
D|-------------------------------------------------------------------------|
A|-------------------------------------------------------------------------|
E|-------------------------------------------------------------------------|

(solo or interlude)
e|-------------------------------------------------------------------------|
B|--------7-8-10-11-10-8-----------8-8-----------8-8----12-13-14-10-11-8-10|
G|-7-8-10-----------------10-12----7-7--10-12----7-7-----------------------|
D|-------------------------------------------------------------------------|
A|-------------------------------------------------------------------------|
E|-------------------------------------------------------------------------|

this tab probably isnt 100% correct so feel free to leave a comment or correction

lyrics:
Don't cry my love don't cry no more
A crashing sky a rolling screen
A city drowning Gods black tears
I cannot bear to see

She lay under the midnight moon
Her restless body stiring
Until the magic morning hour
Like poison it succumbs her

Her baby skin her old black dress
Her hair it twists round her necklace
Constricts and chokes like ruthless vines
To sleep she overtakes her?

Her room is painted Heron Blue
Lit by candlelight and chandelier
And from her headboard perched so high
A million dreams have passed her

Don't cry my love don't cry no more
It overwhelms my breaking heart
A minor swell of violins
I cannot bear to hear them

A mother shepherds her young birds
she fills their mouths and warms their souls
Til they are strong and good to fly
Away from her alone she'll die

Cradle on quiet old oak limbs
As heaven blue her light fails
A breath of soot into her lungs
A life, a journeys end in one

Don't sing that old sad hymn no more
It resonates inside my soul
It haunts me in my waking dream
I cannot bear to hear it.

enjoyy!!
Suggest correction
Give kudos to tab author, rate the tab!
1 2 3 4 5
comments
print report bad tab
guest
You may want to rate the tab now too:
select rating
Wanna post a correction for this tab? Suggest correction