Oops, an error
Loading. Please wait.

Heron Blue Tab

version 4
version 4

Whole song

Interactive

13,586 views 21 this week
1 commentread comment
1 2 3 4 5
please rate
add to favorites
launch autoscroll
font size
0
reset
how to read this tab
guitar tuner
Tab Pro tools
  • play this tab
  • loop segment
  • change instrument
  • show fretboard
  • metronome
×
Best way to learn
"Heron Blue"
Autoscroll
slow
fast
+/-
esc
set tempo
stop
Difficulty
intermediate
This is my first and there was no full tab for the song so i did my own

Guitar 1: use this until just before solo
0:00-2:04
e|----------------------------------|
B|-3-3-3-3-3-3-3-3-3-3-3-3-3-3-3-3--|
G|0-0-0-0-0-0-0-0-0-0-0-0-0-0-0-0---|
D|----------------------------------|
A|----------------------------------|
E|----------------------------------|

Guitar 2: main riff over Guitar 1, 8 times
0:00-0:38
e|--------------------------|
B|--------------------------|
G|--------------------------|
D|-5-55-8-88--3-5-3-5--0-55-|X8
A|--------------------3-----|
E|--------------------------|

Guitar 2: does this on the 9th time  
0:38-0:44
e|--------------------------|
B|--------------------------|
G|--------------------------|
D|-5-55-8-88--3-5-3-5--7—-5-|X1
A|--------------------5-----|
E|--------------------------|

Guitar 2: goes back to this X3
0:44-0:57
e|--------------------------|
B|--------------------------|
G|--------------------------|
D|-5-55-8-88--3-5-3-5--0-55-|X3
A|--------------------3-----|
E|--------------------------|

Guitar 2 does the same again on the 4th time
0:57-1:03
e|--------------------------|
B|--------------------------|
G|--------------------------|
D|-5-55-8-88--3-5-3-5--7—-5-|X1
A|--------------------5-----|
E|--------------------------|

Guitar 2: repeat the same thing again X3
1:03-1:16
e|--------------------------|
B|--------------------------|
G|--------------------------|
D|-5-55-8-88--3-5-3-5--0-55-|X3
A|--------------------3-----|
E|--------------------------|

Guitar 2: Do this again on the 4th time
1:16-1:22
e|--------------------------|
B|--------------------------|
G|--------------------------|
D|-5-55-8-88--3-5-3-5--7—-5-|X1
A|--------------------5-----|
E|--------------------------|






Guitar 2: same again
1:22-1:35
e|--------------------------|
B|--------------------------|
G|--------------------------|
D|-5-55-8-88--3-5-3-5--0-55-|X3
A|--------------------3-----|
E|--------------------------|

Guitar 2: on 4th
1:35-1:40
e|--------------------------|
B|--------------------------|
G|--------------------------|
D|-5-55-8-88--3-5-3-5--7—-5-|X1
A|--------------------5-----|
E|--------------------------|

Guitar 2: both do it once
1:40-1:45
e|--------------------------|
B|--------------------------|
G|--------------------------|
D|-5-55-8-88--3-5-3-5--0-55-|X1
A|--------------------3-----|
E|--------------------------|
1:45-1:50
e|--------------------------|
B|--------------------------|
G|--------------------------|
D|-5-55-8-88--3-5-3-5--7—-5-|X1
A|--------------------5-----|
E|--------------------------|

Guitar 2: do this 3 more times until the solo/ bridge
1:50-2:04
e|--------------------------|
B|--------------------------|
G|--------------------------|
D|-5-55-8-88--3-5-3-5--0-55-|X3
A|--------------------3-----|
E|--------------------------|




This is what I got for the solo:

Guitar 1: Just before solo and during solo across 1st part
2:04-2:07
e|---3-3-3-3-3-3-3-3-3-3-3-3-3-3-3-3-|
B|---3-3-3-3-3-3-3-3-3-3-3-3-3-3-3-3-|
G|--2-2-2-2-2-2-2-2-2-2-2-2-2-2-2-2--|
D|-----------------------------------|
A|-----------------------------------|
E|-----------------------------------|


Guitar 2: 1st part
2:04-2:07
e|--------------------6—-3--|
B|-----------------3--3—-3--|
G|--0--0--2--3—-5--0--------|
D|--0--5--0--0--0-----------|
A|--------------------------|
E|--------------------------|


Guitar 1: in between bits in guitar 2 part 2
2:07-2:13
e|--3-3-----3-3------3-3---—-----------------3-3-----3-3------------|
B|--3-3-----3-3------3-3--—------------------3-3-----3-3------------|
G|------------—-----------------------------------------------------|
D|------------------------------------------------------------------|
A|------------------------------------------------------------------|
E|------------------------------------------------------------------|

Guitar 2:Part 2
2:07-2:13
e|-----3-6-3----3-1-3-----6-8--5-6--3-5--1-3------------------------|
B|-----3-3-3----3-1-3-----6-8--5-6--3-3--1-3------------------------|
G|------------—----------------------------------0-2-----2-0--------|
D|-----------------------------------------------0-0-----0-0--------|
A|------------------------------------------------------------------|
E|------------------------------------------------------------------|

Guitar 1: over guitar 2 part 3
2:13-2:23
e|-3-3-3-3-3-3-3-3-3-3-3-3--|
B|--3-3-3-3-3-3-3-3-3-3-3-3-|
G|------------—-------------|X2
D|--------------------------|
A|--------------------------|
E|--------------------------|

Guitar 2: part 3
2:13-2:23
e|-------------------------—|
B|------------------------—-|
G|------------—-------------|X2
D|-5-55--8-88--33-55--0-5---|
A|-------------------3------|
E|--------------------------|


There are either 3 guitars or just the main riff played back over this bit
So guitar 2 will have to parts to this bit.

Guitar 1: play this over both parts of guitar 2 for the rest of solo
2:23-3:19
e|---3-3-3-3-3-3-3-3-3-3-3-3-3-3-3-3-|
B|---3-3-3-3-3-3-3-3-3-3-3-3-3-3-3-3-|
G|-----------------------------------|
D|-----------------------------------|
A|-----------------------------------|
E|-----------------------------------|

Guitar 2: main riff played back over it.
2:23-3:19
e|--------------------------|
B|--------------------------|
G|--------------------------|
D|-5-55-8-88--3-5-3-5--0-55-|
A|--------------------3-----|
E|--------------------------|

Guitar 2: solo part 4: this is played over both guitar 1 & guitar 2 main riff.
2:23-2:41
e|---------3---3-5-6---6-5-6-5-6-3---8-10-10--6-5-------------------|
B|-------3-3---3-3-3---3-3-3-3-3-3---8-8--8---3-3-------------------|
G|-5-78--0----—------------------0----------------------------------|
D|------------------------------------------------------------------|X2
A|------------------------------------------------------------------|
E|------------------------------------------------------------------|


2:41-3:00
e|--3-3-6-8-10-3---10-10--5-5--6-6--5-5--6-6--3-3----|
B|--3-3-3-8-8--3---8--8---3-3--3-3--3-3--3-3--3-3----|
G|--0---------—-----------0-0--0-0--0-0--0-0--0-0----|X2
D|------------------------5-5--5-5--5-5--5-5--5-5----|
A|--------------------------------------------0-0----|
E|--------------------------------------------3-3----|
3:00-3:19
e|--6-6--5-5--8--3-3-------—-------|
B|--3-3--3-3--8--3-3------—--------|
G|------------—-------2-2--0-0-----|X4
D|--------------------0-0--5-5-----|
A|--------------------5-5--5-5-----|
E|--------------------5-5--3-3-----|

Guitar 1: played over main riff
3:39-3:43
e|-3-3-3-3-3-3-3-3-3-3-3-3--|
B|--3-3-3-3-3-3-3-3-3-3-3-3-|
G|------------—-------------|X4
D|--------------------------|
A|--------------------------|
E|--------------------------|
3:39-4:06
e|--------------------------|
B|--------------------------|
G|--------------------------|
D|-5-55-8-88--3-5-3-5--0-55-|X10
A|--------------------3-----|
E|--------------------------|

Guitar 1: after every 4 times of main riff
3:43
e|-3-3-3-3-3-3-3-3-3-3-3-3—-3-3-3-|
B|--3-3-3-3-3-3-3-3-3-3-3-3-3-3-3-|
G|------------—-------------0-2-0-|X1
D|--------------------------------|
A|--------------------------------|
E|--------------------------------|

Guitar 2: on 11th he plays this again
4:06-4:12
e|--------------------------|
B|--------------------------|
G|--------------------------|
D|-5-55-8-88--3-5-3-5--7—-5-|X2
A|--------------------5-----|
E|--------------------------|

Continue doing this until the second solo

Guitar 2: solo 1st part & Part 2
5:50-6:00
e|--------------------6—-3--|
B|-----------------3--3—-3--|
G|--0--0--2--3—-5--0--------|
D|--0--5--0--0--0-----------|
A|--------------------------|
E|--------------------------|










Guitar 1: played between Guitar Part 2
e|--3-3-----3-3------3-3---—-----------------3-3-----3-3------------|
B|--3-3-----3-3------3-3--—------------------3-3-----3-3------------|
G|------------—-----------------------------------------------------|
D|------------------------------------------------------------------|
A|------------------------------------------------------------------|
E|------------------------------------------------------------------|

Guitar 2:Part 2
e|-----3-6-3----3-1-3-----6-8--5-6--3-5--1-3------------------------|
B|-----3-3-3----3-1-3-----6-8--5-6--3-3--1-3------------------------|
G|------------—----------------------------------0-2-----2-0--------|
D|-----------------------------------------------0-0-----0-0--------|
A|------------------------------------------------------------------|
E|------------------------------------------------------------------|

Back to main riff Until outro at 7:24

e|--------------------6—-3--|
B|-----------------3--3—-3--|
G|--0--0--2--3—-5--0--------|
D|--0--5--0--0--0-----------|
A|--------------------------|
E|--------------------------|










Guitar 1: played between Guitar Part 2
e|--3-3-----3-3------3-3---—------------------3-3-3-3-3----3------3-|
B|--3-3-----3-3------3-3--—------------------3-3-3-3-3--3----3------|
G|------------—-----------------------------------------------------|
D|------------------------------------------------------------------|
A|------------------------------------------------------------------|
E|------------------------------------------------------------------|

Guitar 2:Part 2
e|-----3-6-3----3-1-3-----6-8--5-6--3-5--1-3------------------------|
B|-----3-3-3----3-1-3-----6-8--5-6--3-3--1-3------------------------|
G|------------—----------------------------------0-2-----2-0--------|
D|-----------------------------------------------0-0-----0-0--------|
A|------------------------------------------------------------------|
E|------------------------------------------------------------------|
comments
We did not receive enough feedback on this tab! Please rate:
print report bad tab
1 2 3 4 5
1 comment total.
0 reply
sharpyjack wrote on January 30 2011, 11:04 am

Because you know how to steal someones tab.

I want to post or [tab]
guest
You may want to rate the tab now too:
select rating
Please do not post tabs as comments. Select "correction" instead!