Oops, an error
Loading. Please wait.

Tiny Cities Made Of Ashes Tab

4,055 views 3 this week
1 commentread comment
1 2 3 4 5
1 last vote to show rating
add to favorites
launch autoscroll
font size
0
reset
how to read this tab
guitar tuner
Autoscroll
slow
fast
+/-
esc
set tempo
stop
Help us to improve Ultimate-Guitar.com Take our survey!
×
Author
Difficulty
novice
-------------------------------------------------------------------------------
                             TINY CITIES MADE OF ASHES - Sun Kil Moon
-------------------------------------------------------------------------------
Tabbed by: shadley15
Email: shadley15@hotmail.com

Tuning: Standard

Capo Fret 1
This part is the basic guitar line played throughout the whole song.
There are some tweaks here and there brought in by another guitar or
sometimes a toy piano/bell set, but this would get you through at an
open mic or something. Love the original, of course, but Sun Kil Moon
does some of the best covers I've ever heard, so I thought I'd put this
up.



e|0-----------1p0--------------1p0-------------1p0-------------1p0-----------|
B|------1---------------1---------------1---------------1--------------------|
G|----------0---------------0---------------0---------------0----------------|
D|---------------------------------------------------------------------------|
A|1---1---1-------3---3---3-------0---0---0-------1---1---1------------------|
E|---------------------------------------------------------------------------|

Use that first part only for the very first time (notice the simultaneous
pick on the A and e strings for the very first attack).
For the rest of the song use this...

e|-------------1p0--------------1p0-------------1p0-------------1p0------------|
B|:------1---------------1---------------1---------------1--------------------:|
G|-----------0---------------0---------------0---------------0-----------------|
D|-----------------------------------------------------------------------------|
A|:1---1---1-------3---3---3-------0---0---0-------1---1---1------------------:|
E|-----------------------------------------------------------------------------|

And that's it. Hope you like it, and if you haven't heard this version I highly 
recommend it. Cheers.
Suggest correction
Give kudos to tab author, rate the tab!
1 2 3 4 5
comments
print report bad tab
1 comment total.
+2 reply
shadley15 31 Apr 16, 2011 09:54 PM

While playing around with it I found that if you capo 6 and drop everything
down a string it makes it a little easier. Here's the change, notice that
you no longer have to waste a finger on the G (formerly B) string.

E|---------------------------------------------------------------------------|
B|0-----------1p0--------------1p0-------------1p0-------------1p0-----------|
G|------0---------------0---------------0---------------0--------------------|
D|----------0---------------0---------------0---------------0----------------|
A|---------------------------------------------------------------------------|
E|1---1---1-------3---3---3-------0---0---0-------1---1---1------------------|

Use that first part only for the very first time (notice the simultaneous
pick on the A and e strings for the very first attack).
For the rest of the song use this...

E|-----------------------------------------------------------------------------|
B|:------------1p0--------------1p0-------------1p0-------------1p0-----------:|
G|-------0---------------0---------------0---------------0---------------------|
D|-----------0---------------0---------------0---------------0-----------------|
A|:---------------------------------------------------------------------------:|
E|-1---1---1-------3---3---3-------0---0---0-------1---1---1-------------------|

guest
You may want to rate the tab now too:
select rating
Wanna post a correction for this tab? Suggest correction