Oops, an error
Loading. Please wait.

Truckers Atlas Tab

version 2
version 2

Whole song

Interactive

2,575 views 3 this week
2 commentsread comments
1 2 3 4 5
excellent!
x 3
add to favorites
launch autoscroll
font size
0
reset
how to read this tab
guitar tuner
Autoscroll
slow
fast
+/-
esc
set tempo
stop
Help us to improve Ultimate-Guitar.com Take our survey!
×
                    [tacit] / I'm going to Colorado...
e|--0-----0-----||-|---------2-------0-----------0-----|-------7-------0-----------0-------|-||
B|------------0-||-|-------0-------0-----0-----------0-|-----0-----0-------0-----------0---|-||
G|------0-------||-|*------------2-------------0-------|-------------------------0--------*|-||
D|--0h2-----0---||-|*----------------------0h2-----0---|-------------7-------0h2-----0----*|-||
A|--------------||-|-----------------------------------|-----------------------------------|-||
E|--------------||-|---3-------3-------3---------------|-8-------8-------8-----------------|-|| x4

I'm going to Arizona...
e|--------2-------0-------2-------0-|-------2-------0-------2-------0--|
B|------0-------0-------0-------0---|-----0-------0-------0-------0----|
G|----2-------2-------2-------2-----|---2-------2-------2-------2------|
D|------------------2-------2-------|-0-------0------------------------|
A|----------------------------------|-----------------3-------3--------|
E|--3-------3-----------------------|----------------------------------|

...bled
e|--------2-------0-----------0-----|-------7-------0-----------0------|
B|------0-------0-----0-----------0-|-----0-----0-------0-----------0--|
G|------------2-------------0-------|-------------------------0--------|
D|----------------------0h2-----0---|-------------7-------0h2-----0----|
A|----------------------------------|----------------------------------|
E|--3-------3-------3---------------|-8-------8-------8----------------| 

Going up to Alaska...
e|--------2-------0-------2-------0-|-------2-------0-------0----------|
B|------0-------0-------0-------0---|-----0-------0-------0-----0---0--|
G|------------2-------2-------2-----|-----------2-------2---------2----|
D|----------------------------------|-----------------0-------0--------|
A|--0-------0-------2-------2-------|-3-------3------------------------|
E|----------------------------------|----------------------------------|

[tacit]
e|--------2-------0-----------0-----|-------7-------0-----------0------|
B|------0-------0-----0-----------0-|-----0-----0-------0-----------0--|
G|------------2-------------0-------|-------------------------0--------|
D|----------------------0h2-----0---|-------------7-------0h2-----0----|
A|----------------------------------|----------------------------------|
E|--3-------3-------3---------------|-8-------8-------8----------------| 

This trucker's atlas...
e||-|-----------------------------------|-----------------------------------|-||
B||-|---------7---------------7---------|-------7---------------7-----------|-||
G||-|*----------------9---------------9-|---------------9---------------9--*|-||
D||-|*----7-------7-------7-------7-----|---7-------7-------7-------7------*|-||
A||-|-------10------10------10------10--|-----10------10------10------10----|-||
E||-|---7-------7-------7-------7-------|-8-------8-------8-------8---------|-|| x8

I'm going up, over to Montana...
e||-|-----------------------------------|----------------------------------|
B||-|-----------------------------------|----------------------------------|
G||-|*----0---2---0---2---0---2---0---2-|---0---2---0---2---0---2---0---2--|
D||-|*------0-------0-------0-------0---|-----0-------0-------0-------0----|
A||-|---2-------2-------2-------2-------|-3-------3-------3-------3--------|
E||-|-----------------------------------|----------------------------------|

You knew you were all hot...
e|----------------------------------|-------------------------0-----2---|-||
B|----------------------------------|-----------------------------------|-||
G|----0---2---0---2----0---2--0---2-|---0---2---0---2---0---2---0------*|-||
D|------0-------0--------0------0---|-----0-------0-------0-------0----*|-||
A|--2-------2-------2-------2-------|-3-------3-------3-------3---------|-||
E|----------------------------------|-----------------------------------|-|| x4

I'm going to Colorado...
e||-|---------2-------0-----------0-----|-------7-------0-----------0-------|-||
B||-|-------0-------0-----0-----------0-|-----0-----0-------0-----------0---|-||
G||-|*------------2-------------0-------|-------------------------0--------*|-||
D||-|*----------------------0h2-----0---|-------------7-------0h2-----0----*|-||
A||-|-----------------------------------|-----------------------------------|-||
E||-|---3-------3-------3---------------|-8-------8-------8-----------------|-||

Going up to Alaska...
e|--------2-------0-------2-------0-|-------2-------0-------0----------|
B|------0-------0-------0-------0---|-----0-------0-------0-----0---0--|
G|------------2-------2-------2-----|-----------2-------2---------2----|
D|----------------------------------|-----------------0-------0--------|
A|--0-------0-------2-------2-------|-3-------3------------------------|
E|----------------------------------|----------------------------------|

[tacit]
e|--------2-------0-----------0-----|-------7-------0-----------0------|
B|------0-------0-----0-----------0-|-----0-----0-------0-----------0--|
G|------------2-------------0-------|-------------------------0--------|
D|----------------------0h2-----0---|-------------7-------0h2-----0----|
A|----------------------------------|----------------------------------|
E|--3-------3-------3---------------|-8-------8-------8----------------| 

I'm going up, over to Montana...
e||-|-----------------------------------|----------------------------------|
B||-|-----------------------------------|----------------------------------|
G||-|*----0---2---0---2---0---2---0---2-|---0---2---0---2---0---2---0---2--|
D||-|*------0-------0-------0-------0---|-----0-------0-------0-------0----|
A||-|---2-------2-------2-------2-------|-3-------3-------3-------3--------|
E||-|-----------------------------------|----------------------------------|

You knew you were all hot...
e|----------------------------------|-------------------------0-----2---|-||
B|----------------------------------|-----------------------------------|-||
G|----0---2---0---2----0---2--0---2-|---0---2---0---2---0---2---0------*|-||
D|------0-------0--------0------0---|-----0-------0-------0-------0----*|-||
A|--2-------2-------2-------2-------|-3-------3-------3-------3---------|-||
E|----------------------------------|-----------------------------------|-|| x3
Suggest correction new What's this?
You can suggest a correction to this tab. Community and Mods will review your correction and vote to approve or reject it.
comments
We did not receive enough feedback on this tab! Please rate:
print report bad tab
1 2 3 4 5
2 comments total.
0 reply
ollie84 11 wrote on April 1 2016, 08:43 pm

Tune low e string up one, then use thumb - much easier

0 reply
akack 725 wrote on April 7 2016, 02:23 pm

Great job man. I don't retune it, but I use my thumb. Thanks a ton.

guest
You may want to rate the tab now too:
select rating
Please do not post tabs as comments. Select "correction" instead!