Oops, an error
Loading. Please wait.

Dementia solo tab

31 views 1 this week
no commentswrite comment
1 2 3 4 5
3 more votes to show rating
add to favorites
×
Save as Personal and add changes to this tab that will be seen only by you. Learn more ›
×
You can save this tab as Personal to edit and correct it or add notes. All changes will be seen only by you. Learn more »
launch autoscroll
font size
0
reset
how to read this tab
guitar tuner
edit
Autoscroll
slow
fast
+/-
esc
set tempo
stop
About this tab version
This is the guitar solo for the song "Dementia" by the Greek progressive-power metal band "Sunburst" from their album "Fragments of Creation" which released on February 26th. Gus Drax Dementia solo lesson is here(https://www.youtube.com/watch?v=fuTiVIq4Igc). On this video Gus's guitar tuning is standard, although the original is a half-step down. Was this info helpful? Yes No
D#|---------------------------------------------------------------------------|
A#|------------------------------7h-8p-7---7-8/-10-10-0-12-0-14-0-15-0-17br---|
F#|--\6--7p-6----6h-7p-6---6-7-9---------9---------------------------------12~|
C#|-----------9~---------9----------------------------------------------------|
G#|---------------------------------------------------------------------------|
D#|---------------------------------------------------------------------------|
A#|---------------------------------------------------------------------------|

D#|--17br-(17)br--15-17-14-17-12-17---17--17----|
A#|---------------------------------15--14------|
F#|-----------------------------------------14~-|
C#|---------------------------------------------|
G#|---------------------------------------------|
D#|---------------------------------------------|
A#|---------------------------------------------|

D#|-----------14-15-17-15-14-------------------15-17-19-17-15-14-15-17-15-14--|
A#|--14-15-17----------------17-15-14-15-17-19--------------------------------|
F#|---------------------------------------------------------------------------|
C#|---------------------------------------------------------------------------|
G#|---------------------------------------------------------------------------|
D#|---------------------------------------------------------------------------|
A#|---------------------------------------------------------------------------|

D#|--------------------------------------------------------------|
A#|--17-15-14-15-17-15-14----------------------------------------|
F#|-----------------------16-14-12-14-16-18-16-14-12-14-16-14-12-|
C#|--------------------------------------------------------------|
G#|--------------------------------------------------------------|
D#|--------------------------------------------------------------|
A#|--------------------------------------------------------------|

D#|--------------------------------------------------------------|
A#|--------------------------------------------------------------|
F#|--------------------------------------------------------------|
C#|--16-14-12-11-12-14-12-11-------------------------------------|
G#|--------------------------14-12-10-12-14-12-10----------------|
D#|-----------------------------------------------14-12-10-12~---|
A#|--------------------------------------------------------------|

D#|--------------------------------------------------------10-----------------|
A#|--------------------------------10-14-10----------10-14----14-12-10-12-14--|
F#|--------11-14-11----------11-14----------12-11-12--------------------------|
C#|--11-12----------12-11-12--------------------------------------------------|
G#|---------------------------------------------------------------------------|
D#|---------------------------------------------------------------------------|
A#|---------------------------------------------------------------------------|

              T  (Legato start)                                          (Legato end)
D#|--10-12-14-17-14-12-10------------------------------------------------------------|
A#|-----------------------14-12-10-12-14-12-10---------------------------------------|
F#|--------------------------------------------14-12-11-12-14-12-11------------------|
C#|-----------------------------------------------------------------14-12-11--14~----|
G#|----------------------------------------------------------------------------------|
D#|----------------------------------------------------------------------------------|
A#|----------------------------------------------------------------------------------|

D#|---9---9----------9-----11----12----14----12----11--12---14--12--|
A#|--12b---12-9-----9--9-9---9-9---9-9---9-9---9-9---9----9---9-----|
F#|------------11b--------------------------------------------------|
C#|-----------------------------------------------------------------|
G#|-----------------------------------------------------------------|
D#|-----------------------------------------------------------------|
A#|-----------------------------------------------------------------|

D#|--16br--16-15-14-15-14h-15p-14----14----14--------------14-------|
A#|---x---------------------------17---17b----17-14-----14----14----|
F#|---x---------------------------------------------16b-------------|
C#|---x-------------------------------------------------------------|
G#|---x-------------------------------------------------------------|
D#|---x-------------------------------------------------------------|
A#|---x-------------------------------------------------------------|

D#|----------------------------------|
A#|--17-16-14h-16p-14----14----------|
F#|-------------------16----16-14-13-|
C#|----------------------------------|
G#|----------------------------------|
D#|----------------------------------|
A#|----------------------------------|

D#|--/19p-16------------------------------------------------------|
A#|----------17--------17-----------------------------------------|
F#|-------------16\-14----14\-13-14-13h-14p-13----13--------------|
C#|--------------------------------------------16----16-14-13-14--|
G#|---------------------------------------------------------------|
D#|---------------------------------------------------------------|
A#|---------------------------------------------------------------|

   (Arpeggio)                                           T 
D#|--------------16-17p-16---------------------16-19-21-24-21-19-16---------------|
A#|------------17---------17-----------------17---------------------21-18-16-18~--|
F#|----------18-------------18-------------18-------------------------------------|
C#|--------18-----------------18---------18---------------------------------------|
G#|--16h-19---------------------19-16h-19-----------------------------------------|
D#|-------------------------------------------------------------------------------|
A#|-------------------------------------------------------------------------------|
   ( Alternate picking )
D#|-----------16-17-19--19b~--|
A#|--16-17-19-----------------|
F#|---------------------------|
C#|---------------------------|
G#|---------------------------|
D#|---------------------------|
A#|---------------------------|

************************************

| x   Dead note
|(n) Ghost note
| h   Hammer-on
| p   Pull-off
| T   Tapping
| b   Bend
| br  Bend release
| /   Slide up
| \   Slide down
| ~   Vibrato

************************************

            
            
Suggest correction
Creating personal tab
Creating personal tab
You can edit any tab online and save it as your Personal.

You can edit, replace or remove any tab part or add personal notes – all changes will be seen only by you.

Personal tabs can be accessed anytime from any device, even offline.
Learn more »
Give kudos to tab author, rate the tab!
1 2 3 4 5
comments
print report bad tab
guest
You may want to rate the tab now too:
select rating
Wanna post a correction for this tab? Suggest correction