Oops, an error
Loading. Please wait.

A Young Understanding bass

2,290 views 18 this week
no commentswrite comment
1 2 3 4 5
x 8
add to favorites
×
Save as Personal and add changes to this tab that will be seen only by you. Learn more ›
×
You can save this tab as Personal to edit and correct it or add notes. All changes will be seen only by you. Learn more »
launch autoscroll
font size
0
reset
guitar tuner
edit
Autoscroll
slow
fast
+/-
esc
set tempo
stop
-----------------------------------------------------------------------------
                                          Artist - Sundara Karma
                                         ************************
                                       Song - A Young Understanding   
                                      ******************************
                                           Tabbed By - Ayreon77
                                          **********************
-----------------------------------------------------------------------------
Tuning = Standard


INTRO
******
G|-------------|-------------|--------------------11-|-9-9-9-9-|-9-9-9-9-|-9-9-9-9-|-9----9----|
D|-11-11-11-11-|-11-11-11-11-|-11-11-11-9-11-9-11----|---------|---------|---------|---11---11-|
A|-------------|-------------|-----------------------|---------|---------|---------|-----------|
E|-------------|-------------|-----------------------|---------|---------|---------|-----------|

                                          s                                                                 s
G|-11-11-11-11-|-11-11-11-11-|-11-11-11-11\-|----------|-13-13-13-13-|-13-13-13-13-|-13-11-13-13-16-16-18-18\-|
D|-------------|-------------|--------------|----------|-------------|-------------|--------------------------|
A|-------------|-------------|--------------|-7-7--9-9-|-------------|-------------|--------------------------|
E|-------------|-------------|--------------|----------|-------------|-------------|--------------------------|


------------------------------
00:13
VERSE 1
G|---------|---------|---------|---------|---------|---------|--------------|-------------|\
D|---------|---------|---------|---------|---------|---------|-s------------|-------------| \
A|-4-4-4-4-|-4-4-4-4-|-0-0-0-0-|-0-0-0-0-|-7-7-7-7-|-7-7-7-7-|-\12-12-12-12-|-12-12-12-12-|  \
E|---------|---------|---------|---------|---------|---------|--------------|-------------|   \
                                                                                               X2
                                                                                               |  
G|---------|---------|---------|---------|---------|---------|---------|------------------|   /
D|---------|---------|---------|---------|---------|---------|---------|------------------|  /
A|-4-4-4-4-|-4-4-4-4-|-0-0-0-0-|-0-0-0-0-|-7-7-7-7-|-7-7-7-7-|-9-9-9-9-|-9-9-9-9----------| /
E|---------|---------|---------|---------|---------|---------|---------|------------------|/         


G|---------|---------|---------|---------|--------------|-------------|-------------|-------------|
D|---------|---------|---------|---------|-s------------|-------------|-------------|-------------|
A|-0-0-0-0-|-0-0-0-0-|-0-0-0-0-|-0-0-0-0-|-\12-12-12-12-|-12-12-12-12-|-12-12-12-12-|-12-12-12-12-|
E|---------|---------|---------|---------|--------------|-------------|-------------|-------------|


------------------------------
00:47
CHORUS
*******
G|---------|---------|---------|---------|---------|---------|---------|---------|----------------|\
D|---------|---------|---------|---------|---------|---------|---------|---------|----------------| \
A|-4-4-4-4-|-4-4-4-4-|-4-4-4-4-|-4-4-4-4-|-0-0-0-0-|-0-0-0-0-|-0-0-0-0-|-0-0-0-0-|----------------|  \
E|---------|---------|---------|---------|---------|---------|---------|---------|----------------|   \
                                                                                                       X2
                                                                                                       |
G|---------|---------|---------|---------|--------------|-------------|-------------|-------------|   /
D|---------|---------|---------|---------|-s------------|-------------|-------------|-------------|  /
A|-7-7-7-7-|-7-7-7-7-|-7-7-7-7-|-7-7-7-7-|-\12-12-12-12-|-12-12-12-12-|-12-12-12-12-|-12-12-12-12-| /
E|---------|---------|---------|---------|--------------|-------------|-------------|-------------|/


------------------------------
01:14
VERSE 2
********
G|---------|---------|---------|---------|---------|---------|--------------|-------------|\
D|---------|---------|---------|---------|---------|---------|-s------------|-------------| \
A|-4-4-4-4-|-4-4-4-4-|-0-0-0-0-|-0-0-0-0-|-7-7-7-7-|-7-7-7-7-|-\12-12-12-12-|-12-12-12-12-|  \
E|---------|---------|---------|---------|---------|---------|--------------|-------------|   \
                                                                                               X2
                                                                                               |  
G|---------|---------|---------|---------|---------|---------|---------|------------------|   /
D|---------|---------|---------|---------|---------|---------|---------|------------------|  /
A|-4-4-4-4-|-4-4-4-4-|-0-0-0-0-|-0-0-0-0-|-7-7-7-7-|-7-7-7-7-|-9-9-9-9-|-9-9-9-9----------| /
E|---------|---------|---------|---------|---------|---------|---------|------------------|/         


G|---------|---------|---------|---------|--------------|-------------|-------------|-------------|
D|---------|---------|---------|---------|-s------------|-------------|-------------|-------------|
A|-0-0-0-0-|-0-0-0-0-|-0-0-0-0-|-0-0-0-0-|-\12-12-12-12-|-12-12-12-12-|-12-12-12-12-|-12-12-12-12-|
E|---------|---------|---------|---------|--------------|-------------|-------------|-------------|


------------------------------
01:48
CHORUS
*******
G|---------|---------|---------|---------|---------|---------|---------|---------|----------------|\
D|---------|---------|---------|---------|---------|---------|---------|---------|----------------| \
A|-4-4-4-4-|-4-4-4-4-|-4-4-4-4-|-4-4-4-4-|-0-0-0-0-|-0-0-0-0-|-0-0-0-0-|-0-0-0-0-|----------------|  \
E|---------|---------|---------|---------|---------|---------|---------|---------|----------------|   \
                                                                                                       X2
                                                                                                       |
G|---------|---------|---------|---------|--------------|-------------|-------------|-------------|   /
D|---------|---------|---------|---------|-s------------|-------------|-------------|-------------|  /
A|-7-7-7-7-|-7-7-7-7-|-7-7-7-7-|-7-7-7-7-|-\12-12-12-12-|-12-12-12-12-|-12-12-12-12-|-12-12-12-12-| /
E|---------|---------|---------|---------|--------------|-------------|-------------|-------------|/


------------------------------
02:15
BRIDGE
*******
G|-------------|-------------|-------------|------------------|    G|-------|-------|-------|--------|
D|-------------|-------------|-------------|------------------|    D|-------|-------|-------|--------|
A|-4-4--4-4--4-|-0-0--0-0--0-|-7-7--7-7--7-|-12-12--12--12-12-|    A|-4~~~~-|-0~~~~-|-7~~~~-|-12~~~~-|
E|-------------|-------------|-------------|------------------|X2  E|-------|-------|-------|--------|X4


------------------------------
02:57
CHORUS
*******
G|---------|---------|---------|---------|---------|---------|---------|---------|----------------|\
D|---------|---------|---------|---------|---------|---------|---------|---------|----------------| \
A|-4-4-4-4-|-4-4-4-4-|-4-4-4-4-|-4-4-4-4-|-0-0-0-0-|-0-0-0-0-|-0-0-0-0-|-0-0-0-0-|----------------|  \
E|---------|---------|---------|---------|---------|---------|---------|---------|----------------|   \
                                                                                                       X2
                                                                                                       |
G|---------|---------|---------|---------|--------------|-------------|-------------|-------------|   /
D|---------|---------|---------|---------|-s------------|-------------|-------------|-------------|  /
A|-7-7-7-7-|-7-7-7-7-|-7-7-7-7-|-7-7-7-7-|-\12-12-12-12-|-12-12-12-12-|-12-12-12-12-|-12-12-12-12-| /
E|---------|---------|---------|---------|--------------|-------------|-------------|-------------|/

03:24
G|---------|---------|---------|---------|---------|---------|--------------|-------------|
D|---------|---------|---------|---------|---------|---------|-s------------|-------------| 
A|-4-4-4-4-|-4-4-4-4-|-0-0-0-0-|-0-0-0-0-|-7-7-7-7-|-7-7-7-7-|-\12-12-12-12-|-12-12-12-12-|  
E|---------|---------|---------|---------|---------|---------|--------------|-------------|   
                                                                                               
                                                                                               
G|---------|---------|---------|---------|---------|---------|----|   
D|---------|---------|---------|---------|---------|---------|----|  
A|-4-4-4-4-|-4-4-4-4-|-0-0-0-0-|-0-0-0-0-|-7-7-7-7-|-7-7-7-7-|-12-| 
E|---------|---------|---------|---------|---------|---------|----| 



ENJOY........

            
            
Suggest correction
Creating personal tab
Creating personal tab
You can edit any tab online and save it as your Personal.

You can edit, replace or remove any tab part or add personal notes – all changes will be seen only by you.

Personal tabs can be accessed anytime from any device, even offline.
Learn more »
comments
print report bad tab
guest
You may want to rate the tab now too:
select rating
Wanna post a correction for this tab? Suggest correction