Oops, an error
Loading. Please wait.

She Said chords

version 1
version 1

Whole song

  • This version contains not only the solo, but also ... Show more
5,773 views 189 this week
no commentswrite comment
1 2 3 4 5
x 10
add to favorites
×
Save as Personal and add changes to this tab that will be seen only by you. Learn more ›
×
You can save this tab as Personal to edit and correct it or add notes. All changes will be seen only by you. Learn more »
launch autoscroll
font size
0
reset
transpose
0
reset
display chords
guitar tuner
edit
Autoscroll
slow
fast
+/-
esc
set tempo
stop
Author
Difficulty
About this tab version
This version contains not only the solo, but also the riff played by the 2nd guitar. Was this info helpful? Yes No
Strumming
There is no strumming pattern for this song yet. and get +5 IQ
Guitar 1 plays chords; Guitar 2 plays the riff, and the solo.
It is specified above each verse which instrument(s) is / are playing.

[Riff] (Guitar 2):
e|------------------------------|----------------------------------|
B|------------------------------|--------------15--12--------------|
G|----------12--14--------------|----------12----------14--12------|
D|--12--14----------------------|--12--14--------------------------|
A|------------------------------|----------------------------------|
E|------------------------------|----------------------------------|

[Solo]
(Guitar 2):
e|------------------------------|----------------------------------|
B|----------12-12-12------------|-----------12-12-12-----15-----12-|
G|----12-14----------14-12------|-----12-14----------14-----14-----|
D|-12-----------------------12--|--12------------------------------|
A|------------------------------|----------------------------------|
E|------------------------------|----------------------------------|

e|------------------------------|----------------------------------|
B|----------12-12-12------------|-------------------12----------12-|
G|----12-14----------14-12------|----------12---14------12--14-----|
D|-12-----------------------12--|------12--------------------------|
A|------------------------------|--14------------------------------|
E|------------------------------|----------------------------------|
(During solo Guitar 1 plays C for first measure; G for second; C for third; G D for fourth.)

I think the sounds that kind of fade away in the beginning of the song sound like this (only a guess):
[Intro]
e|-----------------|
B|-----------------|
G|----12-----------|
D|-----------------|
A|----14-----------|
E|-----------------|

Guitar 1 (strum once and let ring):
C
She said
              C       G
I don't wanna go out chasing
              G       C
I kinda wanna go out dancing
                 C
Forget about the guys
        G                 D
Cause it doesn't feel right


Guitar 1 (strumming) and Guitar 2 (riff):
C
So he left
                          G
Drinking with the boys in convoy
                                    C
Flirting with the girls who play it coy
                         G               D
Doubt he even knows that it doesn't feel right


Guitar 1 (again, strum once and let ring):
G
G
G
It started off with her hair
G
Cause every night has gotta start somewhere
C
Another badly combed frown
                                       G
Cause mirrors always seem to bring her down


Guitar 1 (strumming):
G
Going through the motions of
G
“Strangeways Here We Come” and “Teenage Love”
C
Can see there's something inside
                            G
Her voice is telling her to stay behind


Guitar 1 (strumming):
D
So as friends approached her
D
She looked over her shoulder and


Guitar 1 (strumming) and Guitar 2 (riff):
C
She said
                     G
I don't wanna go out chasing
                     C
I kinda wanna go out dancing
C
Forget about the guys
      G               D
Cause it doesn't feel right
C
So he left
                          G
Drinking with the boys in convoy
                                    C
Flirting with the girls who play it coy
                         G               D
Doubt he even knows that it doesn't feel right


No Guitars (Bass and Drums only):
G
Acting like he doesn't care
G
But he's really the most self-aware
           C
He cut his heart out to be cool
                         G
Because everyone loves a criminal


Guitar 1 (strumming):
G
Knocking back a drink or two
G
She's on his mind at least he thinks it’s true
                  C                               G
But ain't it funny how we're never certain 'bout the way we are


Guitar 1 (strumming):
D
Another youth’s wasted
D
And eternity tainted


Guitar 1 (strumming) and Guitar 2 (riff):
C
She said
                     G
I don't wanna go out chasing
                     C
I kinda wanna go out dancing
C
Forget about the guys
        G                 D
Cause it doesn't feel right
C
So he left
                          G
Drinking with the boys in convoy
                                    C
Flirting with the girls who play it coy
                         G               D
Doubt he even knows that it doesn't feel right

Guitar 1 plays
C   G   C   G D
Guitar 2 plays solo (see above)


No Guitars (Bass & Drums only):
C
She said
                     G
I don't wanna go out chasing
                     C
I kinda wanna go out dancing
C
Forget about the guys
        G                 D
Cause it doesn't feel right
C
So he left
                          G
Drinking with the boys in convoy
                                    C
Flirting with the girls who play it coy
                         G               D
Doubt he even knows that it doesn't feel right


Guitar 1 and Guitar 2:
C
She said
                     G
I don't wanna go out chasing
                     C
I kinda wanna go out dancing
C
Forget about the guys
        G                 D
Cause it doesn't feel right
C
So he left
                          G
Drinking with the boys in convoy
                                    C
Flirting with the girls who play it coy
                         G               D
Doubt he even knows that it doesn't feel right

Guitar 1 plays
C   G   C   G    C   G   C   G
(i.e. C G for each measure of the riff)
Guitar 2 plays the riff
Suggest correction
Creating personal tab
Creating personal tab
You can edit any tab online and save it as your Personal.

You can edit, replace or remove any tab part or add personal notes – all changes will be seen only by you.

Personal tabs can be accessed anytime from any device, even offline.
Learn more »
comments
print report bad tab
guest
You may want to rate the tab now too:
select rating
Wanna post a correction for this tab? Suggest correction