Oops, an error
Loading. Please wait.

She Said Tab

version 1
version 1

Solo

  • Taken from the "She Said" music video.
646 views 48 this week
no commentswrite comment
1 2 3 4 5
1 last vote to show rating
add to favorites
launch autoscroll
font size
0
reset
how to read this tab
guitar tuner
Autoscroll
slow
fast
+/-
esc
set tempo
stop
Help us to improve Ultimate-Guitar.com Take our survey!
×
Author
About this tab version
Taken from the "She Said" music video. Was this info helpful? Yes No
[Solo]

E|--------------------------------------|
B|--------------12--12--12--------------|
G|------12--14--------------14--12------|
D|--12------------------------------12--|
A|--------------------------------------|
E|--------------------------------------|

E|------------------------------------------|
B|--------------12--12--12--------------12--|
G|------12--14--------------14------14------|
D|--12--------------------------12----------|
A|------------------------------------------|
E|------------------------------------------|

E|--------------------------------------|
B|--------------12--12--12--------------|
G|------12--14--------------14--12------|
D|--12------------------------------12--|
A|--------------------------------------|
E|--------------------------------------|

E|----------------------------------|
B|------------------12----------12--|
G|--14------12--14------12--14------|
D|------12--------------------------|
A|----------------------------------|
E|----------------------------------|

taken from the "She Said" music video
Suggest correction
Give kudos to tab author, rate the tab!
1 2 3 4 5
comments
print report bad tab
guest
You may want to rate the tab now too:
select rating
Wanna post a correction for this tab? Suggest correction