Oops, an error
Loading. Please wait.

She Said Tab

version 2
version 2

Solo

  • Taken from the "She Said" music video.
124 views 27 this week
no commentswrite comment
1 2 3 4 5
2 more votes to show rating
add to favorites
launch autoscroll
font size
0
reset
how to read this tab
guitar tuner
Autoscroll
slow
fast
+/-
esc
set tempo
stop
Help us to improve Ultimate-Guitar.com Take our survey!
×
Author
She Said - Sundara Karma
Solo tab

Think it's pretty accurate but listen to the song
for timings and stuff (I found it a little tricky)
Hope it's okay, give it a rate if you can
Thanks, enjoy ;)

e|-------------------------|-------------------------|
B|----------12-12-12-------|-------------12-12-12----|
G|----12-14----------14-12-|-------12-14----------14-|
D|-12----------------------|-12-12-------------------|
A|-------------------------|-------------------------|
E|-------------------------|-------------------------|

e|-------------------------|-------------------------|
B|-15----12-12----------12-|12-12--------------------|
G|----14----------12-14----|------14-12-------12-14--|
D|-------------12----------|------------12-12--------|
A|-------------------------|-------------------------|
E|-------------------------|-------------------------|

e|-------------------------|-------------------------|
B|----12-------12----------|-------------------------|
G|-14----12-14-------------|-------------------------|
D|-------------------------|-------------------------|
A|-------------------------|-------------------------|
E|-------------------------|-------------------------|
Suggest correction
Give kudos to tab author, rate the tab!
1 2 3 4 5
comments
print report bad tab
guest
You may want to rate the tab now too:
select rating
Wanna post a correction for this tab? Suggest correction