Oops, an error
Loading. Please wait.

Vivienne chords

version 2
version 2

Whole song

2,431 views 21 this week
4 commentsread comments
1 2 3 4 5
x 12
add to favorites
×
Save as Personal and add changes to this tab that will be seen only by you. Learn more ›
×
You can save this tab as Personal to edit and correct it or add notes. All changes will be seen only by you. Learn more »
launch autoscroll
font size
0
reset
transpose
0
reset
display chords
guitar tuner
edit
Autoscroll
slow
fast
+/-
esc
set tempo
stop
Author
Difficulty
Strumming
There is no strumming pattern for this song yet. and get +5 IQ
Sundara Karma - Vivienne

EP II

Guitar Tab

Tuning: Standard EADGBE

Tabbed by Riptide

Problems? Email: hyprriptide@gmail.com


Symbols list (As Reference): 
h - hammer on 
p - pull off 
b - bend string up
r - release bend
/ - slide up
\ - slide down
v - vibrato (sometimes written as ~)
t - right hand tap
x - play 'note' with heavy damping
() - Harmonic
**** - Hold the note.. idk what the correct tab symbol is but apparently it is normally --- 
which doesn't work here for obvious reasons.

This is correct to what Sundara Karma uploaded to their Facebook.. 
I just wanted it to be on here so more people knew about it!

Intro (Nice easy riff that sounds great :) )
e|----------------|----------------|----------------|----------------|
B|--------------15|---17---15------|--------------15|---17---15------|
G|------14--17----|------------17--|------14--17----|------------17--|
D|--17------------|----------------|--17------------|----------------|
A|----------------|----------------|----------------|----------------|
E|----------------|----------------|----------------|----------------| X4

Verse strumming pattern
Play along to what the bass plays.. it's very simple to work out
e|--------------|--------------|
B|--5--5--5--5--|--5--5--5--5--|
G|--5--5--5--5--|--5--5--5--5--| X2 then change chord for 8 strums then change again for 8 
D|--5--5--5--5--|--5--5--5--5--|        before returning to original chord
A|--3--3--3--3--|--3--3--3--3--|
E|--------------|--------------|

Chords

Wild eyes, skinny jeans
C
Disengaged at just 19
Am                F
You and I stuck in the inbetween
C                           Am F

Come on baby
F
Let's feel alive
      G
We can change the world if we stop getting high
       F                               G
But you know I'd give it all up
F
Just to spend it with you
                      G
If you say I need
C
To fall in deeper, I'd fall
                       Am F
Just to stay with you
C
You know I'd give it all
                     Am F
Vivienne
e|----------------|----------------|----------------|----------------|
B|--------------15|---17---15------|--------------15|---17---15------|
G|------14--17----|------------17--|------14--17----|------------17--|
D|--17------------|----------------|--17------------|----------------|
A|----------------|----------------|----------------|----------------|
E|----------------|----------------|----------------|----------------| X2

I never knew, didn't see
C
That fate could be
                Am
So tounge in cheek
             F
A loving kindness that's
C
Both brutal and bleak
     Am      F

Come on baby
F
Let's feel alive
      G
We can change the world if we stop getting high
       F                  G
But goddamn I give it all up
F
Just to spend it with you
                      G
If you say I need
C
To fall in deeper, I'd fall
                       Am F
Just to stay with you
C
You know I'd give it all
                     Am F
Vivienne
e|----------------|----------------|----------------|----------------|
B|--------------15|---17---15------|--------------15|---17---15------|
G|------14--17----|------------17--|------14--17----|------------17--|
D|--17------------|----------------|--17------------|----------------|
A|----------------|----------------|----------------|----------------|
E|----------------|----------------|----------------|----------------| X2


And the feel
        C
That were close to the fear
          F        Am    
Heaven knows
            F
We pray, we hope
   Am    F
And we wait, we go
       Am    F

Time after time, as the day touches the night
C                   F
Like a child I cry, 'cause it's all goodbye
       Am                    F
Though I crumble on my mess(?)
         C
We don't crawl in the west(?)
         F
Live and hope for the best
         Am
Fuck it all up the rest
        F


If you say I need
C
To fall in deeper, I'd fall
                       Am F
Just to stay with you
C
You know I'd give it all
                     Am F

**For this last bit play the intro guitar riff until the end 
OR play the chords C - Am - F following the same pattern to the chorus**
e|----------------|----------------|----------------|----------------|
B|--------------15|---17---15------|--------------15|---17---15------|
G|------14--17----|------------17--|------14--17----|------------17--|
D|--17------------|----------------|--17------------|----------------|
A|----------------|----------------|----------------|----------------|
E|----------------|----------------|----------------|----------------| 

OR!!

Time after time, as the day touches the night
C                   C
Like a child I cry, 'cause it's all goodbye
Am               F
Vivienne
Though I crumble on my mess
C
We don't crawl in the west
C
Vivienne
Live and hope for the best
Am
Fuck it all up the rest
F

Awesome xD hope you enjoyed.. If you have a Rhythm Guitar and lead, 
Rhythm should play those chords where the tab is shown.
I'm sure they can work out where it is as the structure is fairly simple :) 
Bass just plays the same notes as the chords!
(C,A,F,G)

Any problems, post them below or Email me: hyprriptide@gmail.com 

Cheers

-Riptide

            
            
Suggest correction
Creating personal tab
Creating personal tab
You can edit any tab online and save it as your Personal.

You can edit, replace or remove any tab part or add personal notes – all changes will be seen only by you.

Personal tabs can be accessed anytime from any device, even offline.
Learn more »
comments
print report bad tab
4 comments total. Showing first comments.
0 reply
RiptideIsHere 68 Jun 01, 2016 07:16 AM

Thanks for positive feedback! Hope this has been useful <3 I'm seeing Sundara Karma this summer and am extremely excited!

0 reply
RiptideIsHere 68 Feb 07, 2017 02:34 PM

Saw Sundara Karma yesterday night for the third time! Would highly recommend if you get the chance!

0 reply
RiptideIsHere 68 Aug 30, 2017 08:30 AM

Saw Sundar for the 4t time this weekend with 10,000 people in the crowd. Absolutely crazy how they've blown up!

guest
You may want to rate the tab now too:
select rating
Wanna post a correction for this tab? Suggest correction