Oops, an error
Loading. Please wait.

Terrorist Tab

65 views 1 this week
no commentswrite comment
1 2 3 4 5
3 more votes to show rating
add to favorites
launch autoscroll
font size
0
reset
how to read this tab
guitar tuner
×
Best way to learn
"Terrorist"
Autoscroll
slow
fast
+/-
esc
set tempo
stop
Author
Difficulty
intermediate
Sunday Night Cruise is an AMAZING Band and they're not known well enough. If you listen 
them...tell everyone about them! And they came from my City! YAY!

[VERSE 1]
This is a hold up, we are the only ones..
E----------------------------------------------------------------|
B----------------------------------------------------------------|
G----------------------------------------------------------------|
D-----3-2--------------3-2---------------------------------------|
A---------3-0-0-----------0---0----------------------------------|
E--1----------------1-------3---1--------------------------------|

That are product of this new sensation..
E----------------------------------------------------------------|
B----------------------------------------------------------------|
G--3-3-------2-2-2-----------------------------------------------|
D--3-3--3-3--2-2-2-----------------------------------------------|
A--1-1--3-3--0-0-0-----------------------------------------------|
E-------1-1------------------------------------------------------|

This is a stake out, the raid has just begun
E----------------------------------------------------------------|
B----------------------------------------------------------------|
G----------------------------------------------------------------|
D-----3-2--------------3-2---------------------------------------|
A---------3-0-0-----------3-0-1----------------------------------|
E--1----------------1----------0---------------------------------|

We're cutting losses for the new creation
E----------------------------------------------------------------|
B----------------------------------------------------------------|
G--3-3-------2-2-2-----------------------------------------------|
D--3-3--3-3--2-2-2-----------------------------------------------|
A--1-1--3-3--0-0-0-----------------------------------------------|
E-------1-1------------------------------------------------------|


Fall to the floor, fall to the sightlines..
E----------------------------------------------------------------|
B--------------------------------------------you get the idea.---|
G-3333333333333333333333-----------------------------------------|
D----------------------------------------------------------------|
A----------------------------------------------------------------|
E----------------------------------------------------------------|

[CHORUS]
To Love, Surrender now...
E---------------------------|
B---------------------------|
G-------3-3--2-2------------|
D--3-3--3-3--2-2--2-2-------| (x2) Part 1
A--3-3--1-1--0-0--2-2-------|
E--1-1------------0-0-------|

Lay down your guns, or open fire..
E---------------------------------------------|
B---------------------------------------------|
G-------3-3--2-2-------------3-3--3-3----3-3--|
D--3-3--3-3--2-2--2-2--------3-3--3-3----3-3--| Part 2
A--3-3--1-1--0-0--2-2--------1-1--1-1----1-1--|
E--1-1------------0-0-------------------------|

E----------------------------------------|
B----------------------------------------|
G----------------------------------------| Part 3
D-----3-2----------3-3-3-2-2-2-----------|
A---------3-1-1----3-3-3-2-2-2-----------|
E--1---------------1-1-1-0-0-0-----------|

And Then play VERSE 2
[Which is played the Exact same as VERSE 1.]

Then play CHORUS 2 TIMES. Once WITHOUT Part 3, and once WITH part 3.

[BRIDGE]
Surrender Now..
E-------------------------------------------------------------|
B-------------------------------------------------------------|
G-------------------------------------------------------------|
D--3-3--2-2--5-5--4-4--7-7--6-6--3-3--2-2---0-2-3-0-----------| (x4)
A--3-3--2-2--5-5--4-4--7-7--6-6--3-3--2-2---0-2-3-0-----------|
E--1-1-------3-3-------5-5-------1-1--------0-0-1-0-----------|


[ENDING]
To Love, Surrender now...
E---------------------------|
B---------------------------|
G-------3-3--2-2------------|
D--3-3--3-3--2-2--2-2-------| (x2)
A--3-3--1-1--0-0--2-2-------|
E--1-1------------0-0-------|

Lay down your guns, or open fire..
E---------------------------------------------|
B---------------------------------------------|
G-------3-3--2-2-------------3-3--3-3----3-3--|
D--3-3--3-3--2-2--2-2--------3-3--3-3----3-3--|
A--3-3--1-1--0-0--2-2--------1-1--1-1----1-1--|
E--1-1------------0-0-------------------------|

To Die, ...
E---------------------------|
B---------------------------|
G-------3-3--2-2------------|
D--3-3--3-3--2-2--2-2-------| (x2)
A--3-3--1-1--0-0--2-2-------|
E--1-1------------0-0-------|

Lay down your lies,..
E------------------------------------------------------------------|
B------------------------------------------------------------------|
G-------3-3--2-2-------------5-5--5-5--7-7---5-5--5-5--7-7----8----|
D--3-3--3-3--2-2--2-2--------5-5--5-5--7-7---5-5--5-5--7-7----8----|
A--3-3--1-1--0-0--2-2--------3-3--3-3--5-5---3-3--3-3--5-5----6----|
E--1-1------------0-0----------------------------------------------|
Suggest correction
Give kudos to tab author, rate the tab!
1 2 3 4 5
comments
print report bad tab
guest
You may want to rate the tab now too:
select rating
Wanna post a correction for this tab? Suggest correction