Oops, an error
Loading. Please wait.

Slow Dance Chords

46 views 3 this week
no commentswrite comment
1 2 3 4 5
3 more votes to show rating
add to favorites
launch autoscroll
font size
0
reset
transpose
0
reset
simplify chords
display chords
guitar tuner
Autoscroll
slow
fast
+/-
esc
set tempo
stop
Help us to improve Ultimate-Guitar.com Take our survey!
×
Author
Difficulty
novice
                             SUNEOHAIR - SLOW DANCE

Tabbed by: Rottney (reconssuck)
E-mail: reconssuck@hotmail.de

Artist: Suneohair
Song: Slow Dance
                             
Tuning: Standard (EADGBe)


[Intro] x3 (lead guitar)

E|----------------------------------------------------|
B|----------------------------------------------------|
G|----------------------------------------------------|
D|-----7-9-5---7-9-5--5-5-5-4-5-4-4-------------------|  
A|----------------------------------5-7---7-7-9-10----|
E|----------------------------------------------------|

[Intro Variation]

E|----------------------------------------------------|
B|----------------------------------------------------|
G|----------------------------------------------------|
D|-----7-9-5---7-9-5--5-5-5-4-5-4-4-------------------|
A|----------------------------------5-7---------------|
E|----------------------------------------------------|

During intro + variation rhythm guitar plays: x4

C C Bm7 Em


[Verse]

C              G
Nare kitta hyoujou no
C        Bm7       Em
Tsumetai asa ga suki
C                  G
Mazariau kutsu to kokyuu no
C      Bm7       Em     G   C   
Supido kasoku shite motsureta


[Intro] x3 (lead guitar)

E|----------------------------------------------------|
B|----------------------------------------------------|
G|----------------------------------------------------|
D|-----7-9-5---7-9-5--5-5-5-4-5-4-4-------------------|  
A|----------------------------------5-7---7-7-9-10----|
E|----------------------------------------------------|

[Intro Variation]

E|----------------------------------------------------|
B|----------------------------------------------------|
G|----------------------------------------------------|
D|-----7-9-5---7-9-5--5-5-5-4-5-4-4-------------------|
A|----------------------------------5-7---------------|
E|----------------------------------------------------|


[Verse]

C                G
Tabun sousa kizuiteita none
C        Bm7       Em
Itsuka ni sugita yume
C                G
Akarasamana taido misete
C      Bm7       Em     G
Yogen no youna sora no iro


[Pre-Chorus]

C       D         G      Em
Sonna ni ijiwaru shinaide
C       D         G      Em
Waratta usui kuchibiru ni
C      D         G      Em
Katamuku kage wo oi kaketa
C         D
Imi saemo wakaranai mama ni


[Chorus]

G       D   Em    C         Bm     Em
Tayorinai hodo daki shimete hold tight
C          D
Kasane te ikutsu mono
G       D  Em      C       Bm      Em
Tayorinai kurai bukiyou na slow dance
C        D
Yureru kimochi odoru no


[Intro] x3 (lead guitar)

E|----------------------------------------------------|
B|----------------------------------------------------|
G|----------------------------------------------------|
D|-----7-9-5---7-9-5--5-5-5-4-5-4-4-------------------|  
A|----------------------------------5-7---7-7-9-10----|
E|----------------------------------------------------|

[Intro Variation]

E|----------------------------------------------------|
B|----------------------------------------------------|
G|----------------------------------------------------|
D|-----7-9-5---7-9-5--5-5-5-4-5-4-4-------------------|
A|----------------------------------5-7---------------|
E|----------------------------------------------------|


[Pre-Chorus]

C       D         G      Em
Anmari hitori ni shinaide
C       D         G      Em
Yuugure ni omoi kasa ne ta sugi
C      D         G      Em
Yuku kisetsu oikose ba
C             D
Kimochi dake tokete iku mama ni


[Chorus]

G       D   Em    C         Bm     Em
Tayorinai hodo daki shimete hold tight
C          D
Kasane te ikutsu mono
G       D  Em      C       Bm      Em
Tayorinai kurai bukiyou na slow dance
C        D
Yureru kimochi odoru no
G       D   Em    C         Bm     Em
Tayorinai hodo daki shimete hold tight
C          D
Kasane te ikutsu mono
G       D  Em      C       Bm      Em
Tayorinai kurai bukiyou na slow dance
C        D
Yureru kimochi odoru no 


[Verse] (with lead guitar on top)

C      D         G      Em
Sonna ni ijiwaru shinaide
C      D         G      Em
Waratta usui kuchibiru ni
C      D         G      Em
Anmari hitori ni shinaide
C      D         G      Em
Sonna ni ijiwaru shinaide


(during this part a second guitar plays:)

[Intro] x4 (lead guitar)

E|----------------------------------------------------|
B|----------------------------------------------------|
G|----------------------------------------------------|
D|-----7-9-5---7-9-5--5-5-5-4-5-4-4-------------------|  
A|----------------------------------5-7---7-7-9-10----|
E|----------------------------------------------------|

end on G


That's all.
Enjoy and Rate.
Suggest correction
Give kudos to tab author, rate the tab!
1 2 3 4 5
comments
print report bad tab
guest
You may want to rate the tab now too:
select rating
Wanna post a correction for this tab? Suggest correction