Oops, an error
Loading. Please wait.

Come On tab

937 views 9 this week
no commentswrite comment
1 2 3 4 5
2 more votes to show rating
add to favorites
×
Save as Personal and add changes to this tab that will be seen only by you. Learn more ›
×
You can save this tab as Personal to edit and correct it or add notes. All changes will be seen only by you. Learn more »
launch autoscroll
font size
0
reset
how to read this tab
guitar tuner
edit
Autoscroll
slow
fast
+/-
esc
set tempo
stop
Tabbed by Liam McCartney
If you see any problems with this tab email me at LMcCartneyUG@gmail.com

Artist:Sunflower Bean
Song:Come on 
Album:Human Ceremony

Tuning:E standard (EADGBe) with capo on 4th fret  

h-hammer on

  [Verse]
e|--2--2----2-2--3-3-0-0-0-0--|
B|--2--2-h3-3-2--2-2-0-0-0-0--|
G|--2--2----2-2--2-2-0-0-0-0--|
D|--2--2----2-2--2-2-2-2-2-2--|x4 
A|-------------------2-2-2-2--|
E|----------------------------|

  [Chorus] 
e|------0-----0-----0-----0---------------0-----0------0------------0--|
B|----0-----0-----0---0-----3-3-3-2-----0-----0------0---0-------11----|
G|--5-----4-----2-------2-------------5-----4-----2--------2--11-------|
D|---------------------------------------------------------------------|x2
A|---------------------------------------------------------------------|
E|---------------------------------------------------------------------|

  [Verse] "Right now i'm on the edge of my seat..."
e|--2--2----2-2-3-3-0-0-0-0--|
B|--2--2-h3-3-2-2-2-0-0-0-0--|
G|--2--2----2-2-2-2-0-0-0-0--|
D|--2--2----2-2-2-2-2-2-2-2--|x8 
A|------------------2-2-2-2--|
E|---------------------------|

  [Chorus] "see the lights change across the way..."  
e|------0-----0-----0-----0---------------0-----0------0------------0--|
B|----0-----0-----0---0-----3-3-3-2-----0-----0------0---0-------11----|
G|--5-----4-----2-------2-------------5-----4-----2------ -2--11-------|
D|---------------------------------------------------------------------|x2
A|---------------------------------------------------------------------|
E|---------------------------------------------------------------------|

  "Right now..."
e|-----------------------2-2--|
B|------------------0----2-2--|
G|------0-----0-------0--2-2--|
D|----2-----2-----0------2-2--|x4
A|--3-----2-------------------|
E|--------------3-------------|


e|--2-2--2--2--2-2--2-2-2--|
B|--2-2--2--2--2-2--3-3-3--|
G|--2-2--2--2--2-2--2-2-2--|
D|--2-2--2--2--2-2--2-2-2--|x4
A|-------------------------|
E|-------------------------|


  [Verse] "Right now i'm on the edge of my seat..." 
e|--2--2----2-2-3-3-0-0-0-0--|
B|--2--2-h3-3-2-2-2-0-0-0-0--|
G|--2--2----2-2-2-2-0-0-0-0--|
D|--2--2----2-2-2-2-2-2-2-2--|x8 
A|------------------2-2-2-2--|
E|---------------------------|

  [Chorus] "See the lights change across the way..."
e|------0-----0-----0-----0---------------0-----0------0------------0--|
B|----0-----0-----0---0-----3-3-3-2-----0-----0------0---0-------11----|
G|--5-----4-----2-------2-------------5-----4-----2--------2--11-------|
D|---------------------------------------------------------------------|x2
A|---------------------------------------------------------------------|
E|---------------------------------------------------------------------|

  "Right now..."
e|-----------------------2-2--|
B|------------------0----2-2--|
G|------0-----0-------0--2-2--|
D|----2-----2-----0------2-2--|x4
A|--3-----2-------------------|
E|--------------3-------------|

  "hey now i'm on the edge of my seat..."
e|--2-2--2--2--2-2--2-2-2--|
B|--2-2--2--2--2-2--3-3-3--|
G|--2-2--2--2--2-2--2-2-2--|
D|--2-2--2--2--2-2--2-2-2--|x8
A|-------------------------|
E|-------------------------|

"So come on..." 
e|--2-2-2-2-2-2-2-2-2-2-2-2-2-2-2-2--|
B|--2-2-2-2-2-2-2-2-3-3-3-3-3-3-3-3--|
G|--2-2-2-2-2-2-2-2-2-2-2-2-2-2-2-3--|
D|--2-2-2-2-2-2-2-2-2-2-2-2-2-2-2-2--|x8
A|-----------------------------------|
E|-----------------------------------|

  "Right now..."
e|-----------------------2-2--|
B|------------------0----2-2--|
G|------0-----0-------0--2-2--|
D|----2-----2-----0------2-2--|x4
A|--3-----2-------------------|
E|--------------3-------------|
Suggest correction
Creating personal tab
Creating personal tab
You can edit any tab online and save it as your Personal.

You can edit, replace or remove any tab part or add personal notes – all changes will be seen only by you.

Personal tabs can be accessed anytime from any device, even offline.
Learn more »
Give kudos to tab author, rate the tab!
1 2 3 4 5
comments
print report bad tab
guest
You may want to rate the tab now too:
select rating
Wanna post a correction for this tab? Suggest correction