Oops, an error
Loading. Please wait.

Easier Said tab

3,305 views 24 this week
2 commentsread comments
1 2 3 4 5
x 11
add to favorites
×
Save as Personal and add changes to this tab that will be seen only by you. Learn more ›
×
You can save this tab as Personal to edit and correct it or add notes. All changes will be seen only by you. Learn more »
launch autoscroll
font size
0
reset
how to read this tab
guitar tuner
edit
Autoscroll
slow
fast
+/-
esc
set tempo
stop
Author
Difficulty
Tabbed by Charles Benagh (CBenagh@gmail.com)

Artist: Sunflower Bean
Title: Easier Said
Album: Human Ceremony


Legend:
 /  slide up
 \  slide down
 h  hammer-on
 p  pull-off


Tuning: EADGBe (standard)

Time signature:  4/4

 
0:00 - 0:12
[Intro]                                      
e-|----------------------------------------------------------------------------------------------|
B-|--0---0--------0--------0--------0--------0-----0---0--------0--------0--------0--------0-----|
G-|--8------8--------8--------8--------8-----------8------8--------8--------8--------8-----------|
D-|--9---------9--------9--------9--------9--------9---------9--------9--------9--------9--------|
A-|----------------------------------------------------------------------------------------------|
E-|----------------------------------------------------------------------------------------------|

e-|----------------------------------------------------------------------------------------------|
B-|--0---0--------0--------0--------0--------0-----0---9--------9--------9--------9--------9-----|
G-|--8------8--------8--------8--------8-----------8------8--------8--------8--------8-----------|
D-|--9---------9--------9--------9--------9--------9---------9--------9--------9--------9--------|
A-|----------------------------------------------------------------------------------------------|
E-|----------------------------------------------------------------------------------------------|


0:12 - 0:25
[Verse] (instrumental)
e-|---------------------------------6--6------------------------------------------6--6-----------|
B-|---------------------------0--0--------7--7--9---------------------------0--0--------7--7--9--|
G-|--8--6-------------6--8-------------------------8--6-------------6--8-------------------------|
D-|--------9--6----9-------------------------------------9--6----9-------------------------------|
A-|----------------------------------------------------------------------------------------------|
E-|----------------------------------------------------------------------------------------------|

e-|----------------------------------------------------------------------------------------------|
B-|---------------------------0--------0--------9--------9--------9--------9--------9------------|
G-|--8--6-------------6--8-------8--------8--------8--------8--------8--------8--------8---------|
D-|--------9--6----9----------------9--------9--------9--------9--------9--------9--------9------|
A-|----------------------------------------------------------------------------------------------|
E-|----------------------------------------------------------------------------------------------|


0:25 - 0:49
[Verse], with vocals ("You try hard to...") - repeat once
e-|----------------------------------------------------------------------------------------------|
B-|*--------------------------0--------0--------0--------0--------0--------0--------0--------0---|
G-|--8--6-------------6--8-------8--------8--------8--------8--------8--------8--------8---------|
D-|--------9--6----9----------------9--------9--------9--------9--------9--------9--------9------|
A-|*---------------------------------------------------------------------------------------------|
E-|----------------------------------------------------------------------------------------------|

e-|----------------------------------------------------------------------------------------------|
B-|------------------------------0--------0--------9--------9--------9--------9--------9--------*|
G-|--8--6-------------6--8----------8--------8--------8--------8--------8--------8--------8------|
D-|--------9--6----9----------9--------9--------9--------9--------9--------9--------9--------9---|
A-|---------------------------------------------------------------------------------------------*|
E-|----------------------------------------------------------------------------------------------|


0:49 - 1:14
[Pre-Chorus] ("Act so tough...") - repeat once
e-|--12-12-12---12--11---------------------------12-12-12---12--11-------------------------------|
B-|*---------------------12---9---9h11-------------------------------12---9---9h11---------------|
G-|--------------------------------------11--11--------------------------------------11--11------|
D-|----------------------------------------------------------------------------------------------|
A-|*---------------------------------------------------------------------------------------------|
E-|----------------------------------------------------------------------------------------------|

e-|--------------------------------------6-6-6---6-----------------------------------------------|
B-|---9-9-9---9--7----------------7-----------------9---7-------------7-------------------------*|
G-|-----------------8---6---6h8-------8---------------------8---6h8-------8----------------------|
D-|----------------------------------------------------------------------------------------------|
A-|---------------------------------------------------------------------------------------------*|
E-|----------------------------------------------------------------------------------------------|


1:14 - 1:39
[Chorus] ("Easier said than done...") - repeat once
e-|-------0--------0--------7--------7--------7---------0--------0--------7--------7--------6----|
B-|*---------0--------0--------0--------0------------------0--------0--------0--------0----------|
G-|--/9---------9--------9--------9--------9-------/6---------6--------6--------6--------6-------|
D-|----------------------------------------------------------------------------------------------|
A-|*---------------------------------------------------------------------------------------------|
E-|----------------------------------------------------------------------------------------------|

e-|-------------------------6--------6--------6--------------------------------------------------|
B-|-------0--------0------------------------------------0--------0--------0--------0--------0---*|
G-|--/8------8--------8--------8--------8----------/6------6--------6--------6--------6----------|
D-|-------------9--------9--------9--------9------------------4--------4--------4--------4-------|
A-|---------------------------------------------------------------------------------------------*|
E-|----------------------------------------------------------------------------------------------|


1:39 - 2:04
Verse (w/ vocals)

2:04 - 2:29
Pre-chorus

2:29 - end
Chorus (x4)


*This is all my own work
Suggest correction
Creating personal tab
Creating personal tab
You can edit any tab online and save it as your Personal.

You can edit, replace or remove any tab part or add personal notes – all changes will be seen only by you.

Personal tabs can be accessed anytime from any device, even offline.
Learn more »
comments
print report bad tab
2 comments total.
+1 reply
emmetmoore 10 Jan 08, 2017 01:12 PM

This is great. I've only been able to get so far trying to work it out.

0 reply
aloe.vera.4me4u 10 Apr 18, 2017 11:46 AM

👍

guest
You may want to rate the tab now too:
select rating
Wanna post a correction for this tab? Suggest correction