Oops, an error
Loading. Please wait.

Easier Said Bass Tab

version 2
version 2

Whole song

  • Tabbed to highlight the slight details in the basslines.
28 views 1 this week
no commentswrite comment
1 2 3 4 5
3 more votes to show rating
add to favorites
launch autoscroll
font size
0
reset
guitar tuner
Autoscroll
slow
fast
+/-
esc
set tempo
stop
Help us to improve Ultimate-Guitar.com Take our survey!
×
Author
Difficulty
novice
About this tab version
Tabbed to highlight the slight details in the basslines. Was this info helpful? Yes No
Sunflower Bean - Easier Said
Track 4 from the album "Human Ceremony" (2016 Fat Possum Records).

Tabbed by Isaac Murguia, October 2016.
Originally uploaded to Ultimate-Guitar.com
Contact: www.youtube.com/user/Goadiroth

[INTRO]
G|------------------------|
D|------------------------|
A|------------------------|
E|-7----77----77----77----|

[VERSE]
G|-----------|------------|-------------|-------------|-------------|------------|
D|-9999-9999-|-9999-99911-|-11-11-11-11-|-11-11-11-14-|-14-14-14-14-|-14-14-14-9-|
A|----(x3)---|------------|----(x3)-----|-------------|----(x3)-----|------------|
E|-----------|------------|-------------|-------------|-------------|------------| x2
  "..give me one more chance..."
G|-----------|------------|-------------|-------------|-------------|------------|
D|-9999-9999-|-9999-99911-|-11-11-11-11-|-11-11-11-14-|-14-14-14-14-|-14-14-14---|
A|----(x3)---|------------|----(x3)-----|-------------|----(x3)-----|------------|
E|-----------|------------|-------------|-------------|-------------|------------|

[PRE-CHORUS]
G|------------------|------------------|------------------|------------------|
D|-44-4-444-4444-44-|-44-4-444-4444-44-|-22-2-222-2222-22-|-22-2-222-22--2-2-|
A|------------------|------------------|------------------|------------------|
E|------------------|------------------|------------------|------------------|
           "but i'm not scared..."
G|------------------|------------------|------------------|------------------|
D|-44-4-444-44--4-4-|-44-4-444-44--4-4-|-22-2-222-22--2-2-|-22-2-222-22--2-2-|
A|------------------|------------------|------------------|------------------|
E|------------------|------------------|------------------|------------------|

[CHORUS]
G|------------9---|-------------6---|------------------|------------------|
D|----------------|-----------------|-4/6-6--6-4/6--6--|-44-4--4-444-4446-|
A|-7-7--7-77----7-|-4-4--4-2/4----4-|------------------|------------------|
E|----------------|-----------------|------------------|------------------| x2

Repeat VERSE (without the x2)
Repeat PRE-CHORUS
Repeat CHORUS x4

[END NOTE]
G|---------|
D|---------|
A|-7-------|
E|---------|

End. Please rate! :D
Suggest correction
Give kudos to tab author, rate the tab!
1 2 3 4 5
comments
print report bad tab
guest
You may want to rate the tab now too:
select rating
Wanna post a correction for this tab? Suggest correction