Oops, an error
Loading. Please wait.

A Thousand Years Tab

version 1
version 1

Whole song

Interactive

297,336 views 1,065 this week
no commentswrite comment
1 2 3 4 5
accurate
x 21
add to favorites
launch autoscroll
font size
0
reset
how to read this tab
guitar tuner
Autoscroll
slow
fast
+/-
esc
set tempo
stop
Help us to improve Ultimate-Guitar.com Take our survey!
×
Author
Capo - Fret 3
Standard tuning



[Intro]


e|---7----------7----------7-------5---------|
B|---8----------8----------8-----------------|
G|-------------------------------------------|
D|---9---------------------------------------|
A|---10----------------------------9---------|
E|-------------------------------------------|

e|---7----------7----------7-------5---------|
B|---8----------8----------8-------7---------|
G|-------------------------------------------|
D|-------------------------------------------|
A|-------------------------------------------|
E|---0---------------------------------------|

e|---8----------8----------8-------7---------|
B|---5----------5----------5-----------------|
G|---5---------------------------------------|
D|-------------------------------------------|
A|-------------------------------------------|
E|---0---------------------------------------|

e|---7-----------------------5---------------|
B|---8---------8-------------3---------------|
G|---7----------------7------2---------------|
D|---0-----------------------0---------------|
A|-------------------------------------------|
E|-------------------------------------------|

e|---3------2----------|
B|---3-------------3---|
G|---------------------|
D|-------0------0------|
A|---------------------|
E|---------------------|


[Verse]

e|-----------------------------------------------------------------|
B|--------------3---------------------------3-------------------3--|
G|---0-------------------------0------------------0----------------|
D|-----------2---------2---------------2------------------2--------|
A|---3-------------------------3------------------3----------------|
E|-----------------------------------------------------------------|

e|-----------------------------------------------------------------------|
B|--------------3--------------------------3---------------3-----1p0-----|
G|---0-------------------------0----------------------------------------2|
D|----------0----------0---------------0-----------0---------------------|
A|---2-------------------------2---------------------------2-------------|
E|-----------------------------------------------------------------------|

e|---------------------------------------------------------------|
B|----------------------------3-----1p0--------------------0-----|
G|---0----------0--------------------------2-----2---------------|
D|-------2-------------2-------------------------0------0--------|
A|------------------2--------------------------------------------|
E|---0------------------------0----------------------------------|

e|-----------------------|
B|-----------------------|
G|-------------0h2-------|
D|---4---------------0---|
A|-----------------------|
E|---2----2--------------|


e|-----------------------------------------------------------------|
B|--------------3---------------------------3-------------------3--|
G|---0-------------------------0------------------0----------------|
D|-----------2---------2---------------2------------------2--------|
A|---3-------------------------3------------------3----------------|
E|-----------------------------------------------------------------|

e|-----------------------------------------------------------------------|
B|--------------3--------------------------3---------------3-----1p0-----|
G|---0-------------------------0----------------------------------------2|
D|----------0----------0---------------0-----------0---------------------|
A|---2-------------------------2---------------------------2-------------|
E|-----------------------------------------------------------------------|

e|---------------------------------------------------------------|
B|----------------------------3-----1p0--------------------0-----|
G|---0----------0--------------------------2-----2---------------|
D|-------2-------------2-------------------------0------0--------|
A|------------------2--------------------------------------------|
E|---0------------------------0----------------------------------|

e|-----------------------|
B|-----------------------|
G|-------------0h2-------|
D|---4---------------0---|
A|-----------------------|
E|---2----2--------------|


[Pre-Chorus]

e|------------------------------------3--------0---------0-----------|
B|---------------------------3--------3--------3---------3-----------|
G|---0----------0-----0------0--------0--------------0---0-----------|
D|----------2---2-----2------2-----------------------2---------------|
A|---0-----------------------------------------0---------------------|
E|-------------------------------------------------------------------|

e|---2-----------2--------3------------3------------3--------0h2-----|
B|---3-------3---3--------3--------3---3--------3---3--------3-------|
G|---0-------0---0--------0--------0---0--------0---0--------2-------|
D|---0--------------------0----------------------------------0-------|
A|-------------------------------------------------------------------|
E|------------------------3------------------------------------------|


[Chorus]

e|---------------------------------------------------0------------------|
B|---0-----3p0--------------0------3p0---------------------------------3|
G|---0----------------------0-------------------------------------------|
D|---0------------------------------------------------------------------|
A|------------------2-------------------------2----------------2--------|
E|---3-----------3----------3-------------3----------3------3-----3-----|

e|-------------------------------------------------------------------|
B|---------------0-----0------3p0--------------0------3p0------------|
G|----2----0-----0------------0----------------0---------------------|
D|---------------0---------------------------------------------------|
A|----2---------------------------------2----------------------2-----|
E|---------------------0-------------0---------0------------0--------|

e|----0--------------------------------------------------------------|
B|-----------------------3---------------------------1---------------|
G|-----------------------------2-----0-----0h2--------------0--------|
D|-----------------------------0-------------------------------------|
A|----------------2----------------------------------3-----------2---|
E|----0--------0----0------------------------------------------------|

e|-------------------------------0-----------------------------------|
B|-----------0-------------------0-----------------------------------|
G|------------------------0------0------0-----0h2-----0-----2--------|
D|------------------------2----------2-------------2-----------------|
A|----3------------2------x-------------------3----------------------|
E|-------------------------------------------------------------------|

e|---------------------------------------------------------0---------|
B|----1------------------0---------0---------------------------------|
G|------------2-------------------------------2----------------------|
D|----0-------------0-------------------------0----------------------|
A|---------x-----------------x---------x------------x----------------|
E|---------x-----------------x---------x------------x----------------|

e|----0h2-----2-------------0-------2------2--------3--------3------5|
B|----3-------3-------------3-------3------3--------3--------3------0|
G|----2-------2-----0---------------0---------------0---------------0|
D|------------------2------------------------------------------------|
A|------------------3---------------3---------------3---------------3|
E|-------------------------------------------------------------------|

e|----5--------------------------------------------------------------|
B|----0--------------3-----------------------------------------------|
G|---------0---------------------------------------------------------|
D|---------------2---------2-----------------------------------------|
A|---------3---------------------------------------------------------|
E|-------------------------------------------------------------------|


[Verse 2]

e|-----------------------------------------------------------------|
B|--------------3---------------------------3----------------------|
G|---0-------------------------0------------------0----------------|
D|-----------2---------2---------------2------------------2-------0|
A|---3-------------------------3------------------3-------------0--|
E|-----------------------------------------------------------------|

e|-----------------------------------------------------------------------|
B|--------------3--------------------------3---------------0-------------|
G|---0-------------------------0-------------------------------2--------0|
D|----------0----------0---------------0-----------0---------------------|
A|---2-------------------------2---------------------------2---------2---|
E|-----------------------------------------------------------------------|

e|---------------------------------------------------------------|
B|----------------------------3-----1p0--------------------0-----|
G|---0----------0-------------------------2----------------------|
D|-------2-------------2------------------0-------------0--------|
A|------------------2--------------------------------------------|
E|---0------------------------0----------------------------------|

e|-----------------------|
B|-----------------------|
G|-------------0h2-------|
D|---4---------------0---|
A|-----------------------|
E|---2----2--------------|

e|---------------------------------------------------------------------|
B|---------------------------------------3------------------------3----|
G|----0--------0-------------0--------------------------0--------------|
D|---------2--------2---------------2----------2---------------2------2|
A|----3----------------------3--------------------------3--------------|
E|---------------------------------------------------------------------|

e|-------------------------------------------------------------------------|
B|---------------3----------------------3--------------0-------------------|
G|-----0----------------------0-----------------------------2---------0----|
D|----------2----------2------------2----------2-------------------0-------|
A|-----3----------------------3------------------------3-------------------|
E|-------------------------------------------------------------------------|

e|-------------------------------------------------------------------------|
B|-------------0----------------3------------------------0-----------------|
G|-----0----------------------------------0-----------------------0--------|
D|-----------0---------0--------------0-----------0------------0---------0-|
A|-----2------------2-----------2-------------2----------2------------2----|
E|-------------------------------------------------------------------------|

e|-------------------------------------------------------------------------|
B|-----3----1p0---------------------------------------------3-------1p0----|
G|--------------------2-------0------------0-------------------------------|
D|----------------2----------------2---------------2----------------------2|
A|-----2----------------------------------------2--------------------------|
E|----------------------------0-----------------------------0--------------|

e|-------------------------------------------------------------------------|
B|----------------0--------------------------------------------------------|
G|-----2--------------------------0h2-----------0--------------------------|
D|-----0------0---------4----------------0---------------0-----0-----------|
A|----------------------------------------------0------2-2-----2-----------|
E|----------------------2-----2--------------------------------------------|

e|-------------3-------0--------------0----------2------------2------------|
B|----3--------3-------3--------------3----------3--------3---3------------|
G|----0--------0---------------0------0----------0--------0---0------------|
D|----2------------------------2-----------------0-------------------------|
A|---------------------0---------------------------------------------------|
E|-------------------------------------------------------------------------|

e|----3------------3-------3---------3--------0h2--------------------------|
B|----3-------3----3-------3-----3---3--------3---------------3------------|
G|----0-------0----0-------0-----0---0--------2--------2s4--------4s2----0-|
D|----0---------------------------------------0----------------------------|
A|-------------------------------------------------------------------------|
E|----3--------------------------------------------------------------------|


[Chorus]

e|-----------------------------------------------------0-------------------|
B|----0---------3p0-------------0-------3p0-----------------------------3--|
G|----0-------------------------0------------------------------------------|
D|-------------------------------------------------------------------------|
A|----------------------2----------------------0-------------------2-------|
E|----3-------------------------3----------------------3-------3-----------|

e|----------------------------------------------------------------------0--|
B|----------------0--------0-------3p0-------------0------3p0--------------|
G|----2------0----0----------------0---------------0-----------------------|
D|----------------0--------------------------------------------------------|
A|---------------------------------------2----------------------2----------|
E|----2--------------------0-----------------------0--------------------0--|

e|----0--------------------------------------------------------------------|
B|-------------------------3-------------------------------1---------------|
G|------------------------------2-------0-----0h2------------------0-------|
D|------------------------------0-----------------------------------------2|
A|------------------2--------------------------------------3---------------|
E|----0--------0-----------------------------------------------------------|

e|------------------------------0------------------------------------------|
B|-----------0------------------0---------------------------------------1--|
G|-------------0----------0-----0---------0-------0h2-------0------2-------|
D|---------------2--------2-----------2-----------------2---------------0--|
A|----3-------------------x-----------------------3------------------------|
E|-------------------------------------------------------------------------|

e|-------------------------------------------------------0-------0h2---2---|
B|--------------------0---------0--------------------------------3-----3---|
G|--------------------------------------------2------------------2-----2---|
D|-------0-----0------------------------------0------------------0---------|
A|---x---------------------x---------x--------------x----------------------|
E|---x---------------------x---------x--------------x----------------------|
                               
e|---------------0-----0h2-----2----------| 
B|---------------------3-------3----------| 
G|---2-----------------2-------2----------| 
D|---0-----------------0------------------| 
A|---------x------------------------------| 
E|---------x------------------------------| 


e|-----------------------------------------------------0-------------------|
B|----0---------3p0-------------0-------3p0-----------------------------3--|
G|----0-------------------------0------------------------------------------|
D|-------------------------------------------------------------------------|
A|----------------------2----------------------0-------------------2-------|
E|----3-------------------------3----------------------3-------3-----------|

e|----------------------------------------------------------------------0--|
B|----------------0--------0-------3p0-------------0------3p0--------------|
G|----2------0----0----------------0---------------0-----------------------|
D|----------------0--------------------------------------------------------|
A|---------------------------------------2----------------------2----------|
E|----2--------------------0-----------------------0--------------------0--|

e|----0--------------------------------------------------------------------|
B|-------------------------3-------------------------------1---------------|
G|------------------------------2-------0-----0h2------------------0-------|
D|------------------------------0-----------------------------------------2|
A|------------------2--------------------------------------3---------------|
E|----0--------0-----------------------------------------------------------|

e|------------------------------0------------------------------------------|
B|-----------0------------------0---------------------------------------1--|
G|-------------0----------0-----0---------0-------0h2-------0------2-------|
D|---------------2--------2-----------2-----------------2---------------0--|
A|----3-------------------x-----------------------3------------------------|
E|-------------------------------------------------------------------------|

e|-------------------------------------------------------0-------0h2---2---|
B|--------------------0---------0--------------------------------3-----3---|
G|--------------------------------------------2------------------2-----2---|
D|-------0-----0------------------------------0------------------0---------|
A|---x---------------------x---------x--------------x----------------------|
E|---x---------------------x---------x--------------x----------------------|
                                
e|---------------0-----0h2-----2----------| 
B|---------------------3-------3----------| 
G|---2-----------------2-------2----------| 
D|---0-----------------0------------------| 
A|---------x------------------------------| 
E|---------x------------------------------| 


[Instrumental Break]

e|----------------------------|
B|-----1----------------------|
G|-----------------2----------|
D|-----0----------------------|
A|-----------x-------------0--|
E|-----------x----------------|

e|----------------------------------------0-----------0h2-----2------------|
B|----0---------0----------3--------------------------3-------3------------|
G|----------------------------------------------------2-------3------------|
D|-------------------------0-----------------------------------------------|
A|---------x---------x--------------x--------------------------------------|
E|---------x---------x--------------x--------------------------------------|

e|---0--------0-------2---------2-----------3---------3---------5--------5-|
B|---3--------3-------3---------3-----------3---------3---------0--------0-|
G|---0----------------0---------------------0-------------------0----------|
D|---2---------------------------------------------------------------------|
A|---3----------------3---------------------3-------------------3----------|
E|-------------------------------------------------------------------------|

e|-----7-----7------(7)----(7)---------7--------8----------8-------5-------|
B|-----8-----8------10-----10----------8---------------------------0-------|
G|-----9-------------9------9----------7---------------------------0-------|
D|-----9-------------9-----------------9-----------------------------------|
A|-----7-------------7-----------------7---------------------------3-------|
E|----------------------------------------------0-------0------------------|

e|---5-------3---3------2----0--------2-----3------5---5------7----7------|
B|---0-------3---3------3----3--------0-----0------3---3------8----8------|
G|-----------0----------0-------------0------------2---2------7-----------|
D|-------------------------------------------------0----------0-----------|
A|-----------3----------3-------------3-----------------------------------|
E|------------------------------------------------------------------------|

e|----8----8------10-----10------0--------0-------0-------0----------------|
B|----8----8-------8------8------3--------3-------3-------3----------------|
G|----7------------7-------------0----------------0------------------------|
D|----0------------0-------------2-----------------------------------------|
A|-------------------------------3----------------3------------------------|
E|-------------------------------------------------------------------------|

e|------------------------------------------------------------------------0|
B|---------3-------------------0--------0------0----------0----------------|
G|---0-----0-----2------2------0--------0------0----------0---------2------|
D|---2-------------------------2------------------------------------0------|
A|---3-----------3-----------------------------------2--------2------------|
E|-----------------------------0---------------0---------------------------|

e|--------0h2----2-----------3-----------3-------0---------0---------------|
B|--------3------3------3----3-----3-----3-------3---------3---------------|
G|--------2------2------0----0-----0-----0-------0------0--0---------------|
D|--------0-------------2----------2-------------2------2------------------|
A|---x------------------0------------------------0-------------------------|
E|---x---------------------------------------------------------------------|

                                                                   
e|---2--------2----3-----------3------3------------3-----5-------|
B|---3-----3--3----3------3----3------3------3-----3-----3-------|
G|---0-----0--0----0------0----0------0------0-----0-----2-------|
D|---0-------------0-------------------------------------0-------|
A|---------------------------------------------------------------|
E|-----------------3---------------------------------------------|


[Chorus]

e||---------------------------------------0--------------------------------------|
B||-0------3p0-------------0-----3p0----------------------3---------------0------|
G||-0----------------------0-----------------------------------2----0-----0------|
D||-----------------------------------------------------------------------0------|
A||-3--------------2--------------------------------2----------------------------|
E||--------------3---------3--------------3------3----3--------2-----------------|

e|----------------------------------------------0--------------------------|
B|--0-----3p0------------0-----3p0----------------------------------3------|
G|--------0--------------0-------------------------------------------------|
D|-------------------------------------------------------------------------|
A|-----------------2--------------------2-----------------2----------------|
E|--0-----------0--------0-----------0----------0------0-----0-------------|

e|----------------------------------------------------------------------0--|
B|------------------------1-------------------------0-------------------0--|
G|---2------0-----0h2------------0--------------------------------0-----0--|
D|---0--------------------------------2-------------------2-------2--------|
A|------------------------3----------------3----------------------x--------|
E|-------------------------------------------------------------------------|

e|-------------------------------------------------------------------------|
B|-----------------------------------------1----------------------------0--|
G|---------0-----0h2--------0------2-------------------2-------------------|
D|-----2----------------2------------------0------------------0------------|
A|---------------3---------------------------------x-----------------------|
E|-------------------------------------------------x-----------------------|

                                                                 x2
e|--------------------------------0-------0h2----2-----------------||-------|
B|---------0------------------------------3------3-----------------||-------|
G|------------------2---------------------2------2-----------------||---2---|
D|------------------0---------------------0------------0-----------||---0---|
A|---x--------x------------x---------------------------------------||-------|
E|---x--------x------------x---------------------------------------||-------|

e|----------0------0h2-----2---2-------0-----0-----0-------0-------2----2--|
B|-----------------3-------3---3-------3-----3-----3-------3-------3----3--|
G|-----------------2-------2-----------0-----------0---------------0-------|
D|-----------------0-------------------2-----------------------------------|
A|---x---------------------------------3-----------3---------------3-------|
E|---x---------------------------------------------------------------------|

e|---3-----3-------2------3------5---3------0----2-------0------0----------|
B|---0-----0-------3------3------0---0------3----3-------3------3----------|
G|---0-------------0-------------0----------0------------0-------------0---|
D|------------------------------------------0------------0---------0-------|
A|---3-------------3-------------3----------2------------2-----------------|
E|------------------------------------------3------------------------------|

e|-----------0-------2----3-------5-----5-------3---3------2-----0---------|
B|----3------3-------3----3-------3-----3-------3---3------3-----3---------|
G|----0--------------0------------2-------------2----------2---------------|
D|-------------------0------------0-------------0--------------------------|
A|-------------------2-----------------------------------------------------|
E|----3--------------3-----------------------------------------------------|

e|---2----3------5------5--------7------7--------8----8------10----10------|
B|---3----3------3------3--------8------8--------8----8-------8-----8---8--|
G|---2-----------2------2--------7---------------7------------7------------|
D|---------------0---------------0---------------0------------0------------|
A|-------------------------------------------------------------------------|
E|-------------------------------------------------------------------------|

e|-------------------------------------------------------------------------|
B|---3---------------------------------------------------------------------|
G|---2---------------------------------------------------------------------|
D|---0---------------------------------------------------------------------|
A|-------------------------------------------------------------------------|
E|---3---------------------------------------------------------------------|



********************
|h    Hammer-on
|p    Pull-off    
|x    Dead note 
|(n)  Ghost note
******************** 
Suggest correction
comments
print report bad tab
guest
You may want to rate the tab now too:
select rating
Wanna post a correction for this tab? Suggest correction