Oops, an error
Loading. Please wait.

Beat It Tab

version 1
version 1

Whole song

Interactive

7,221 views 21 this week
1 commentread comment
1 2 3 4 5
2 more votes to show rating
add to favorites
launch autoscroll
font size
0
reset
how to read this tab
guitar tuner
×
Best way to learn
"Beat It"
Autoscroll
slow
fast
+/-
esc
set tempo
stop
Difficulty
Tuning
Capo
intermediate
D A D G B E
1st fret
(Capo 1)

      E  E  E  E  E  E  E  E     E  E  E  E  E  E  E  E   (3x)
E|---------------------------|---------------------------|
B|---------------------------|---------------------------|
G|*--------------------------|--------------------------*|
D|*--------------------------|--------------------------*|
A|---x--x--x--x--x--x--x--x--|--x--x--x--x--x--x--x--x---|
D|---x-----x-----x-----x-----|--x-----x--------x--x------|

    E  E  E  E  E  E  E  E     E  E  E  Q    E  E  E   
E|--------------------------|-------------------------|
B|--------------------------|-------------------------|
G|--------------------------|-------------------------|
D|--------------------------|-------------------------|
A|--x--x--x--x--x--x--x--x--|--x--x--x--x-------------|
D|--x-----x-----x-----x-----|--x-----x-------0--0--0--|

    E  E  E  E  Q    E  S  S    E  E  E  E  Q    E  E   
E|---------------------------|-------------------------|
B|---------------------------|-------------------------|
G|---------------------------|-------------------------|
D|-----------3--0----x--0h-2-|--L--0-------------x-----|
A|--------0----------x-------|--------3--x--3----x-----|
D|--L--3-------------x-------|-------------------x--0--|

    E  E  E  E  Q    E  S  S    E  E  Q    E  E  E  E   
E|---------------------------|-------------------------|
B|---------------------------|-------------------------|
G|---------------------------|-------------------------|
D|-----------3--0----x--0h-2-|--L--0-------------------|
A|--------0----------x-------|--------3-------x--------|
D|--L--3-------------x-------|-------------x--x--x--0--|

    E  E  E  E  Q    E  S  S    E  E  E  E  Q    E  E   
E|---------------------------|-------------------------|
B|---------------------------|-------------------------|
G|---------------------------|-------------------------|
D|-----------3--0----x--0h-2-|--L--0-------------x-----|
A|--------0----------x-------|--------3--x--3----x-----|
D|--L--3-------------x-------|-------------------x--0--|

    E  E  E  E  Q    E  S  S    E  E  Q    E  E  Q     
E|---------------------------|------------------------|
B|---------------------------|------------------------|
G|---------------------------|------------------------|
D|-----------3--0----x--0h-2-|--L--0------------------|
A|--------0----------x-------|--------3-------x-------|
D|--L--3-------------x-------|-------------x--x--x----|

     E  E   E  E  E  E  E  E     S  S E  E  E  Q    E  E    
E|------4s--5-----5--5--5--5--|--5h-8-5--------5----x--4s--|
B|------5s--6-----6--6--6--6--|--5-------8----------x--5s--|
G|*-----6s--7-----7--7--------|--5------------------x--6s--|
D|*---------------------------|-------------x--------------|
A|----------------------x-----|--0----------0--------------|
D|---0---------0--------x-----|-------------x--------------|

    E  E  E  E  E  E  E  E     E  E  S  E.  E  E  E  E   
E|--5-----x--5--5--5--------|--3-----3h-5------5--------|
B|--6-----x--6--6--6--8--6--|-----6---------------------|
G|--7-----x-----------------|---------------------------|
D|--------------------------|---------------------------|
A|--------------------x-----|--3-----x------3-----x--0--|
D|-----0--x-----0-----x-----|--------x------------x-----|

    E  E  E  E  S  E.  E  E     E  E  E  E  Q    E  E   
E|--3--1---------------------|--0----------------------|
B|--------3--1--1h-3---------|-----3--1-----1----3-----|
G|---------------------------|-------------------------|
D|---------------------------|-------------------------|
A|--1-----x-----1------x--0--|--3-----x-----3----x--3--|
D|--------x------------x-----|--------x----------x-----|
                                           ^                
    E  E  E  Q     E    E   E     E  E  E  Q    E  E  E     
E|--1------------------(0)-----|--0--------3----3--3------|
B|-----3----------(3)--(3)-----|-----1-----1-------1------|
G|----------------(0)--(0)-----|-----------0-------0-----*|
D|----------------(0)--(0)--0--|-----------2-------2-----*|
A|--------x-------------x------|--0-----x----------x--0---|
D|--0-----x--0----------x------|--------x----------x------|

    E  E  E  Q     E    E   S  S    E  E  E  E  E  E   E   E   
E|--1------------------(0)--4s-5-|--8--5-----5----------------|
B|-----3----------(3)--(3)-------|--5-----8-----------(5)-----|
G|----------------(0)--(0)-------|-----------------5--(5)-----|
D|----------------(0)--(0)--0----|--------------------(5)-----|
A|--------x-------------x--------|--0-----x-----0------x---0--|
D|--0-----x--0----------x--------|--------x------------x------|

    S  S E  E  E  E  E   E   E     E  E  E  E  E  E   E   S  S  
E|--4s-5-5--------5--5--(5)-----|--5--5--------5-----(5)--4s-5-|
B|--5s-6-6--------6--6--(6)-----|--5--5--------5--5--(5)--5s-6-|
G|--6s-7-7--------------(7)--7--|--5--5-----------5--(5)-------|
D|------------------------------|------------------------------|
A|----------x------------x------|--------x--0---------x--------|
D|----------x--0---------x------|--------x------------x--------|

    E  E  E  E  S  E.  E  E      E   E  E  Q     E   E  S  S  
E|--L--5--5--5--7s-8------8--|-------8-----------------------|
B|--L--6--------6---------5--|-------5------------------6s-8-|
G|-----7--------7---------5--|-------5------------------7s-9-|
D|---------------------------|-------------------------------|
A|--------x------------x-----|--(0)-----x--0---------x-------|
D|--0-----x------------x-----|----------x-------(0)--x-------|

    E  E  E   E   E  E  E  E     E  E  E   E   E  E  E  S  S  
E|----------------------------|------------------------------|
B|-----6--8-------6--8-----8--|-----6--8-------6--3-----6s-8-|
G|-----7--7-------7--7-----7--|-------------------3-----7s-9-|
D|----------------------------|------------------------------|
A|--------x-------------x-----|--3-----x--(3)--------x-------|
D|--0-----x--(0)--------x-----|--------x-------------x-------|

    E  E  E   E   E  E  E  E     E  E  E   E   Q     E    E    
E|----------------------------|----------------------3--------|
B|-----6--8-------6--8-----8--|-----6--8-------6----(6)-------|
G|-----7--7-------7--7-----7--|---------------------(0)-------|
D|----------------------------|-------------------------------|
A|--------x-------------x-----|--3-----x--(3)--------x---(0)--|
D|--0-----x--(0)--------x-----|--------x-------------x--------|

     E  E  E  E  Q    E  S  S    E  E  E  E  Q    Q       
E|---1-------------------0----|-------------------3-----|
B|------3---------------------|-----1-------------------|
G|*---------------------------|------------------------*|
D|*-----------3--0-------0h-2-|--L--0------------------*|
A|---------0----------x-------|--------3-----3----------|
D|---0--3-------------x-------|-------------------------|

    E  E  Q    E  E  E   E        E  E   E  E  E  E  E  E   
E|---------------------------|------4s--5-----5--5--5--5--|
B|-----1---------------------|------5s--6-----6--6--6--6--|
G|---------------------------|*-----6s--7-----7--7--------|
D|-----0---------------------|*---------------------------|
A|--------3----x-----x--(0)--|----------------------x-----|
D|-------------x--x--x-------|---0---------0--------x-----|

    S  S E  E  E  Q    E  E      E  E  E  E  E  E  E  E   
E|--5h-8-5--------5----x--4s--|--5-----x--5--5--5--------|
B|--5-------8----------x--5s--|--6-----x--6--6--6--8--6--|
G|--5------------------x--6s--|--7-----x-----------------|
D|-------------x--------------|--------------------------|
A|--0----------0--------------|--------------------x-----|
D|-------------x--------------|-----0--x-----0-----x-----|

    E  E  S  E.  E  E  E  E     E  E  E  E  S  E.  E  E   
E|--3-----3h-5------5--------|--3--1---------------------|
B|-----6---------------------|--------3--1--1h-3---------|
G|---------------------------|---------------------------|
D|---------------------------|---------------------------|
A|--3-----x------3-----x--0--|--1-----x-----1------x--0--|
D|--------x------------x-----|--------x------------x-----|

    E  E  E  E  Q    E  E     E  E  E  Q     E    E   E   
E|--0----------------------|--1------------------(0)-----|
B|-----3--1-----1----3-----|-----3----------(3)--(3)-----|
G|-------------------------|----------------(0)--(0)-----|
D|-------------------------|----------------(0)--(0)--0--|
A|--3-----x-----3----x--3--|--------x-------------x------|
D|--------x----------x-----|--0-----x--0----------x------|

             ^                                               
    E  E  E  Q    E  E  E       E  E  E  Q     E    E   S  S  
E|--0--------3----3--3------|--1------------------(0)--4s-5-|
B|-----1-----1-------1------|-----3----------(3)--(3)-------|
G|-----------0-------0-----*|----------------(0)--(0)-------|
D|-----------2-------2-----*|----------------(0)--(0)--0----|
A|--0-----x----------x--0---|--------x-------------x--------|
D|--------x----------x------|--0-----x--0----------x--------|

    E  E  E  E  E  E   E   E     S  S E  E  E  E  E   E   E   
E|--8--5-----5----------------|--4s-5-5--------5--5--(5)-----|
B|--5-----8-----------(5)-----|--5s-6-6--------6--6--(6)-----|
G|-----------------5--(5)-----|--6s-7-7--------------(7)--7--|
D|--------------------(5)-----|------------------------------|
A|--0-----x-----0------x---0--|----------x------------x------|
D|--------x------------x------|----------x--0---------x------|

    E  E  E  E  E  E   E   S  S    E  E  E  E  S  E.  E  E   
E|--5--5--------5-----(5)--4s-5-|--L--5--5--5--7s-8------8--|
B|--5--5--------5--5--(5)--5s-6-|--L--6--------6---------5--|
G|--5--5-----------5--(5)-------|-----7--------7---------5--|
D|------------------------------|---------------------------|
A|--------x--0---------x--------|--------x------------x-----|
D|--------x------------x--------|--0-----x------------x-----|

     E   E  E  Q     E   E  S  S    E  E  E   E   E  E  E  E   
E|-------8-----------------------|----------------------------|
B|-------5------------------6s-8-|-----6--8-------6--8-----8--|
G|-------5------------------7s-9-|-----7--7-------7--7-----7--|
D|-------------------------------|----------------------------|
A|--(0)-----x--0---------x-------|--------x-------------x-----|
D|----------x-------(0)--x-------|--0-----x--(0)--------x-----|

    E  E  E   E   E  E  E  S  S    E  E  E   E   E  E  E  E   
E|------------------------------|----------------------------|
B|-----6--8-------6--3-----6s-8-|-----6--8-------6--8-----8--|
G|-------------------3-----7s-9-|-----7--7-------7--7-----7--|
D|------------------------------|----------------------------|
A|--3-----x--(3)--------x-------|--------x-------------x-----|
D|--------x-------------x-------|--0-----x--(0)--------x-----|

    E  E  E   E   Q     E    E      E  E  E  E  Q    E  S S  
E|----------------------3--------|--5--5----------------5---|
B|-----6--8-------6----(6)-------|--------------------------|
G|---------------------(0)-------|--------------------------|
D|-------------------------------|-----------3--0-------0-2-|
A|--3-----x--(3)--------x---(0)--|--------0----------x------|
D|--------x-------------x--------|--0--3-------------x------|

    E  E  E  E  E  E  E  E     E  E  E  E  S  E.  E  E   
E|-----5-----------------5--|-----5--5--5--7s-8------8--|
B|--------------------------|--------------6---------5--|
G|--------------------------|--------------7---------5--|
D|--L--0--------------------|-----------3---------------|
A|--------3-----3--L--x-----|--------0------------x-----|
D|--------------------x--0--|--0--3---------------x-----|

     E   E  E  Q     E   E  S  S    E  E  E   E   E  E  E  E   
E|-------8-----------------------|----------------------------|
B|-------5------------------6s-8-|-----6--8-------6--8-----8--|
G|-------5------------------7s-9-|-----7--7-------7--7-----7--|
D|-------------------------------|----------------------------|
A|--(0)-----x--0---------x-------|--------x-------------x-----|
D|----------x-------(0)--x-------|--0-----x--(0)--------x-----|

    E  E  E   E   E  E  E  S  S    E  E  E   E   E  E  E  E   
E|------------------------------|----------------------------|
B|-----6--8-------6--3-----6s-8-|-----6--8-------6--8-----8--|
G|-------------------3-----7s-9-|-----7--7-------7--7-----7--|
D|------------------------------|----------------------------|
A|--3-----x--(3)--------x-------|--------x-------------x-----|
D|--------x-------------x-------|--0-----x--(0)--------x-----|

    E  E  E   E   Q     E    E      E  E  E  E  E  E   E   E   
E|----------------------3--------|--1-----------1------1------|
B|-----6--8-------6----(6)-------|-----3-----3-----3---3---3--|
G|---------------------(0)-------|--------------------(0)-----|
D|-------------------------------|--------------------(0)-----|
A|--3-----x--(3)--------x---(0)--|--------x-------------------|
D|--------x-------------x--------|--------x-----0-------------|

    E  E   E    E   E  E   E   E     E  E  E  E  Q    E  E   
E|------------------1------1------|--1----------------------|
B|---------------------3---3---3--|-----3-------------------|
G|-------------(0)--------(0)-----|-------------------------|
D|------------------------(0)-----|-------------------------|
A|--------(0)---------------------|-------------------x-----|
D|--0--0---0----------------------|--------0-----0----x--0--|

    E  E  Q    E  E   E   E     E  E  E  E  Q    E  E     E  E  Q.     E  E  E   
E|-------------1------1------|-------------------------|------------------------|
B|----------------3---3---3--|-------------------------|------------------------|
G|-------------------(0)-----|-------------------------|------------------------|
D|-------------------(0)-----|-------------------------|------------------------|
A|---------------------------|--x----------------x-----|------------------------|
D|--0-----0------------------|--x--0--0-----0----x--0--|--0-----0------0--0--0--|

    E  E  E  E  Q    E  E     E  E  Q    E  E   E   E     E  E  E  E  Q    E  E   
E|-------------------------|-------------1------1------|-------------------------|
B|-------------------------|----------------3--(3)--3--|-------------------------|
G|-------------------------|-------------------(0)-----|-------------------------|
D|-------------------------|---------------------------|-------------------------|
A|--x----------------x-----|---------------------------|--x----------------x-----|
D|--x--0--0-----0----x--0--|--0-----0------------------|--x--0--0-----0----x--0--|

    E  E  Q.     E  E  E       E  E    E     S    S   E   Q     E   
E|------------------------|---------------------------------------|
B|------------------------|---------------------------------------|
G|------------------------|*---------10-------------10------------|
D|------------------------|*--------(12)--(12)-(12)-----12~-------|
A|------------------------|---------(12)--(12)-(12)-----12--------|
D|--0-----0------0--0--0--|---0--0----------x----x-------------0--|

     E    S    S   E   Q     E  E  E  (4x) E   E    E   E  Q    E   E    
E|-------------------------------------|-------------------x------------|
B|-------------------------------------|-------------------x------------|
G|--10------------10------------------*|*------------------5------------|
D|--12--(12)-(12)-12--12~-------------*|*-----(5)--(5)-----5-------(3)--|
A|------(12)-(12)-----12---------------|---x---5----5------x----x---3---|
D|--------x----x-------------0--0--0---|---x---------------x----x-------|

     E   E  Q.     E  E  E        E   E  Q.     E  E  E   
E|----------x----------------|----------x---------------|
B|----------x----------------|----------x---------------|
G|----------x---------------*|----------x---------------|
D|--(3)-----3------0--0-----*|--(3)-----3---------------|
A|---3------3------3--3--3---|---3------3---------x-----|
D|----------x------0--0--0---|----------x------x--x--x--|

    E   E    E   E  Q    E   E       E   E  Q.     E  Q     
E|------------------x------------|----------x--------------|
B|------------------x------------|----------x--------------|
G|------------------x------------|----------x--------------|
D|-----(1)--(1)-----1-------(3)--|--(3)-----3--------------|
A|--x---1----1------1----x---3---|---3------3---------x----|
D|--x---------------x----x-------|----------x------x--x----|

     E   E    E   E  Q    E   E       E   E  Q.     E  E  E   (3x)
E|-------------------x------------|----------x----------------|
B|-------------------x------------|----------x----------------|
G|*------------------5------------|----------x---------------*|
D|*-----(5)--(5)-----5-------(3)--|--(3)-----3---------------*|
A|---x---5----5------x----x---3---|---3------3---------x------|
D|---x---------------x----x-------|----------x------x--x--x---|

    E   E    E   E  Q    E   E       E   E  Q.     E  Q     
E|------------------x------------|----------x--------------|
B|------------------x------------|----------x--------------|
G|------------------x------------|----------x--------------|
D|-----(1)--(1)-----1-------(3)--|--(3)-----3--------------|
A|--x---1----1------1----x---3---|---3------3---------x----|
D|--x---------------x----x-------|----------x------x--x----|

    E   E    E   E  Q    E   E       E   E  Q.     E  E   S   S   
E|------------------x------------|----------x------------(0)-(0)-|
B|------------------x------------|----------x------------(0)-(0)-|
G|------------------5-------(7)--|--(7)-----7------------(0)-(0)-|
D|-----(5)--(5)-----5-------(7)--|--(7)-----7--------------------|
A|--x---5----5------x----x---7---|---7------7---------x----------|
D|--x---------------x----x-------|----------x------x--x----------|

    S  S E  E  E  E  E   E   E     E  E  E  E  E  E   E   S  S  
E|--4s-5-5--L-----5--5--(5)-----|--5--5--------5-----(5)--4s-5-|
B|--5s-6-6--L-----6--6--(6)-----|--5--5--------5--5--(5)--5s-6-|
G|--6s-7-7--L-----------(7)--7--|--5--5-----------5--(5)-------|
D|------------------------------|------------------------------|
A|----------x------------x------|--------x--0---------x--------|
D|----------x--0---------x------|--------x------------x--------|

    E  E  E  E  S  S E  E  E      E   E  E  Q     E   E  S  S  
E|--L--5--5--5--7s-8-L-----8--|-------8-----------------------|
B|--L--6--------6----------5--|-------5------------------6s-8-|
G|-----7--------7----------5--|-------5------------------7s-9-|
D|----------------------------|-------------------------------|
A|--------x-------------x-----|--(0)-----x--0---------x-------|
D|--0-----x-------------x-----|----------x-------(0)--x-------|

    E  E  E   E   E  E  E  E     E  E  E   E   E  E  E  S  S  
E|----------------------------|------------------------------|
B|-----6--8-------6--8-----8--|-----6--8-------6--3-----6s-8-|
G|-----7--7-------7--7-----7--|-------------------3-----7s-9-|
D|----------------------------|------------------------------|
A|--------x-------------x-----|--3-----x--(3)--------x-------|
D|--0-----x--(0)--------x-----|--------x-------------x-------|

    E  E  E   E   E  E  E  E     E  E  E   E   Q     E    E    
E|----------------------------|----------------------3--------|
B|-----6--8-------6--8-----8--|-----6--8-------6----(6)-------|
G|-----7--7-------7--7-----7--|---------------------(0)-------|
D|----------------------------|-------------------------------|
A|--------x-------------x-----|--3-----x--(3)--------x---(0)--|
D|--0-----x--(0)--------x-----|--------x-------------x--------|

     E  E  E  E  Q    E  S S    E  E  E  E  E  E  E  E   
E|---5--5----------------5---|-----5-----------------5--|
B|---------------------------|--------------------------|
G|*--------------------------|--------------------------|
D|*-----------3--0-------0-2-|--L--0--------------------|
A|---------0----------x------|--------3-----3--L--x-----|
D|---0--3-------------x------|--------------------x--0--|

    E  E  E  E  S  E.  E  E      E   E  E  Q     E   E  S  S  
E|-----5--5--5--7s-8------8--|-------8-----------------------|
B|--------------6---------5--|-------5------------------6s-8-|
G|--------------7---------5--|-------5------------------7s-9-|
D|-----------3---------------|-------------------------------|
A|--------0------------x-----|--(0)-----x--0---------x-------|
D|--0--3---------------x-----|----------x-------(0)--x-------|

    E  E  E   E   E  E  E  E     E  E  E   E   E  E  E  S  S  
E|----------------------------|------------------------------|
B|-----6--8-------6--8-----8--|-----6--8-------6--3-----6s-8-|
G|-----7--7-------7--7-----7--|-------------------3-----7s-9-|
D|----------------------------|------------------------------|
A|--------x-------------x-----|--3-----x--(3)--------x-------|
D|--0-----x--(0)--------x-----|--------x-------------x-------|

    E  E  E   E   E  E  E  E     E  E  E   E   Q     E    E    (x3)
E|----------------------------|----------------------3---------|
B|-----6--8-------6--8-----8--|-----6--8-------6----(6)--------|
G|-----7--7-------7--7-----7--|---------------------(0)-------*|
D|----------------------------|-------------------------------*|
A|--------x-------------x-----|--3-----x--(3)--------x---(0)---|
D|--0-----x--(0)--------x-----|--------x-------------x---------|

    E  E  E  E  Q    E  S S    E  E  E  E  E  E  E  E   
E|--5--5----------------5---|-----5-----------------5--|
B|--------------------------|--------------------------|
G|--------------------------|--------------------------|
D|-----------3--0-------0-2-|--L--0--------------------|
A|--------0----------x------|--------3-----3--L--x-----|
D|--0--3-------------x------|--------------------x--0--|

    E  E  E  E  S  E.  E  E      E   E  E  Q     E   E  S  S   
E|-----5--5--5--7s-8------8--|-------8-----------------------|
B|--------------6---------5--|-------5------------------6s-8-|
G|--------------7---------5--|-------5------------------7s-9-|
D|-----------3---------------|-------------------------------|
A|--------0------------x-----|--(0)-----x--0---------x-------|
D|--0--3---------------x-----|----------x-------(0)--x-------|



************************************

| *    Natural harmonic
| x    Dead note
| h    Hammer-on
| (n)  Ghost note
| ~    Vibrato

************************************
Suggest correction
Give kudos to tab author, rate the tab!
1 2 3 4 5
comments
print report bad tab
1 comment total.
0 reply
jietot 10 May 12, 2013 12:11 PM

goog tab.very acurate

guest
You may want to rate the tab now too:
select rating
Wanna post a correction for this tab? Suggest correction