Oops, an error
Loading. Please wait.

Cannon Rock Tab

75,381 views 360 this week
3 commentsread comments
1 2 3 4 5
x 11
add to favorites
launch autoscroll
font size
0
reset
how to read this tab
guitar tuner
Autoscroll
slow
fast
+/-
esc
set tempo
stop
Help us to improve Ultimate-Guitar.com Take our survey!
×
Author
Difficulty
intermediate
Cannon Rock - Sungha Jung
Original by JERRY C

jhaysontomas@yahoo.com


Chords: D-A-Bm-F#m-G-D-G-A


   W                    H          H             H          H
e|E-------------------|------------------------|------------------------|
B|-------------------|--19~--------17~--------|--15~--------14~--------|
G|-------------------|------------------------|------------------------|
D|-------------------|------------------------|------------------------|
A|-------------------|------------------------|------------------------|
E|-------------------|------------------------|------------------------|

     H          H             H          Q      E   E
e|------------------------|----------------------------|
B|--12~--------10~--------|--12~--------14~----15--17--|
G|------------------------|----------------------------|
D|------------------------|----------------------------|
A|------------------------|----------------------------|
E|------------------------|----------------------------|

                       |---3---|
    H          E   E   S   S   S  E      Q.       S   S  E   E   E   E
e|--14~------------15--14h-15p-14-----|----------------------14--17--19--|
B|-------------17-----------------17--|--15~------17p-15-14--------------|
G|------------------------------------|----------------------------------|
D|------------------------------------|----------------------------------|
A|------------------------------------|----------------------------------|
E|------------------------------------|----------------------------------|

        |--3--|                  |--3--|
    E   S  S  S  E   E   E   E   S  S  S  E
e|--15--14-15-14-----15--14-------------------|
B|---------------17----------17--15-17-15-----|
G|----------------------------------------14--|
D|--------------------------------------------|
A|--------------------------------------------|
E|--------------------------------------------|

     E   E   E   E   T   T  T   T  T   T  T   T  T   T  T   T  T   T  T   T
e|--------------------------------------------------------------------------|
B|--------------15--14h-15-14h-15-14h-15-14h-15-14h-15-14h-15-14h-15-14h-15-|
G|--16--14--12--------------------------------------------------------------|
D|--------------------------------------------------------------------------|
A|--------------------------------------------------------------------------|
E|--------------------------------------------------------------------------|

         PM PM       PM PM         PM PM       PM PM         PM PM    PM    PM
    Q    E  E  E  E  E  E     Q    E  E  E  E  E  E     Q    E  E  E  E  E  E
e|-------------------------|-------------------------|-------------------------|
B|-------------8--7--------|-------------5--7--------|-------------2-----3-----|
G|--7----------------------|-------------------------|--4----------------------|
D|--7----------------------|--7----------------------|--4----------------------|
A|--5----5--5--------5--5--|--7----------------0--0--|--2----2--2-----2-----2--|
E|-------------------------|--5----5--5--------------|-------------------------|

         PM PM    PM    PM         PM PM PM                  PM PM
    Q    E  E  E  E  E  E     Q    E  E  E  Q     E     Q    E  E  E  E  E  E
e|-------------------------|-------------------------|-------------------------|
B|-------------------------|-------------------------|-------------8--7--5-----|
G|-------------------------|----------------4S----6--|--7-------------------7--|
D|--4----------2-----4-----|--5-------------5S----7--|--7----------------------|
A|--4----------2-----4-----|--5----------------------|--5----5--5--------------|
E|--2----2--2--0--0--2--2--|--3----3--3--3-----------|-------------------------|

         PM PM                       PM PM
    Q    E  E  E   E   E  E     Q    E  E  E   E   E  E
e|---------------------------|---------------------------|
B|---------------------------|---------------------------|
G|-------------4S--6h--7--6--|-------------6S--7h--9--7--|
D|--5------------------------|--7------------------------|
A|--5------------------------|--7------------------------|
E|--3----3--3----------------|--5----5--5----------------|

         PM PM       PM PM         PM PM       PM PM         PM PM    PM    PM
    Q    E  E  E  E  E  E     Q    E  E  E  E  E  E     Q    E  E  E  E  E  E
e|-------------------------|-------------------------|-------------------------|
B|-------------8--7--------|-------------5--7--------|-------------2-----3-----|
G|--7----------------------|-------------------------|--4----------------------|
D|--7----------------------|--7----------------------|--4----------------------|
A|--5----5--5--------5--5--|--7----------------0--0--|--2----2--2-----2-----2--|
E|-------------------------|--5----5--5--------------|-------------------------|

         PM PM    PM    PM         PM PM PM                  PM PM
    Q    E  E  E  E  E  E     Q    E  E  E  Q     E     Q    E  E  E  E  E  E
e|-------------------------|-------------------------|-------------------------|
B|-------------------------|-------------------------|-------------8--7--5-----|
G|-------------------------|----------------4S----6--|--7-------------------7--|
D|--4----------2-----4-----|--5-------------5S----7--|--7----------------------|
A|--4----------2-----4-----|--5----------------------|--5----5--5--------------|
E|--2----2--2--0--0--2--2--|--3----3--3--3-----------|-------------------------|

         PM PM                       PM PM PM
    Q    E  E  E   E   E  E     Q    E  E  E    Q.          W
e|---------------------------|--------------------------|---------------------|
B|---------------------------|--------------------------|--19~----------------|
G|-------------4S--6h--7--6--|----------------<>6~------|---------------------|
D|--5------------------------|--7-----------------------|---------------------|
A|--5------------------------|--7-----------------------|---------------------|
E|--3----3--3----------------|--5----5--5--5------------|---------------------|
                                                                        PM  PM
     H         H            H         E   Q.           H          Q     E   E
e|----------------------|--------------------------|---------------------------|
B|--17\-----------------|--15~-----------15br------|--14~----------------------|
G|----------------------|--------------------------|-------------14------------|
D|----------------------|--------------------------|-------------------12--12--|
A|----------------------|--------------------------|---------------------------|
E|----------------------|--------------------------|---------------------------|

               |-----3-----|
     H         Q     Q     Q        Q     Q     H
e|-------------------------------|-------------------------|
B|-------------------------------|--------15---------------|
G|--/16~--------L----14----12----|--14----------11~--------|
D|-------------------------------|-------------------------|
A|-------------------------------|-------------------------|
E|-------------------------------|-------------------------|

                |-----3-----|
     H          Q     Q     Q        H.             E    E
e|--------------------------------|--------------------------|
B|--------------------------------|--14b------------15S--17--|
G|--/16~--------16----14----12----|--------------------------|
D|--------------------------------|--------------------------|
A|--------------------------------|--------------------------|
E|--------------------------------|--------------------------|

     H         E   Q.            H.            Q        H         E   Q.
e|--14~-----------14pbr------|----------------------|---------------------------|
B|---------------------------|--17~-----------------|--15~-----------15pbr------|
G|---------------------------|----------------------|---------------------------|
D|---------------------------|----------------------|---------------------------|
A|---------------------------|----------------------|---------------------------|
E|---------------------------|----------------------|---------------------------|

     Q     Q     Q     Q        Q      Q     Q     Q
e|--------14----17~---------|--19~----17----15----17b----|
B|--14----------------------|----------------------------|
G|--------------------------|----------------------------|
D|--------------------------|----------------------------|
A|--------------------------|----------------------------|
E|--------------------------|----------------------------|

     Q      Q     Q     Q        Q      Q     Q     Q
e|--17~----15----14----17----|--19~----17----15----19----|
B|---------------------------|---------------------------|
G|---------------------------|---------------------------|
D|---------------------------|---------------------------|
A|---------------------------|---------------------------|
E|---------------------------|---------------------------|

     W                       Q    Q    Q    Q       H         Q    Q
e|--19pbr~----------------|----------------------|----------------------|
B|------------------------|----------------------|----------------------|
G|------------------------|--7----6----7---------|-----------------6----|
D|------------------------|----------------------|--7~--------9---------|
A|------------------------|-----------------9----|----------------------|
E|------------------------|----------------------|----------------------|

        PM PM
                                                      |--3--|
   Q    E  E  Q    Q        W                    Q    E  E  E  Q    Q
e|-----------------------|---------------------|--------------------------|
B|------------------7----|--10b----------------|--8----7--8--7-------8----|
G|--7----6--6--7---------|---------------------|----------------9---------|
D|-----------------------|---------------------|--------------------------|
A|-----------------------|---------------------|--------------------------|
E|-----------------------|---------------------|--------------------------|

                                                            PM PM PM PM
    E  E  E  E  H            Q    Q    Q    Q         Q     E  E  E  E    Q
e|------------------------|----------------------|------------------------------|
B|--7---------------------|----------------------|------------------------------|
G|-----9--7---------------|-----------------7----|--<>6b------------------------|
D|-----------9--7~--------|--9----7----5---------|----------7-------------------|
A|------------------------|----------------------|-------------7--5--4----------|
E|------------------------|----------------------|----------------------<>5~----|

    Q    Q    Q    Q       H         Q    Q       E  E  E   E    E   E   E   E
e|----------------------|----------------------|--------7--10S--14--10----------|
B|----------------------|----------------------|-----7------------------12------|
G|--7----6----7---------|-----------------6----|--7-------------------------11--|
D|----------------------|--7~--------9---------|--------------------------------|
A|-----------------9----|----------------------|--------------------------------|
E|----------------------|----------------------|--------------------------------|

                                        |--3--|
    Q.        S   S  Q     Q       Q    E  E  E  Q    Q
e|-------------------------------|--------------------------|
B|--10b~------10S-12-10~---------|--8----7--8--7-------8----|
G|-------------------------------|----------------9---------|
D|-------------------------------|--------------------------|
A|-------------------------------|--------------------------|
E|-------------------------------|--------------------------|

    Q      Q     Q     Q        E   E   E   E   E   E   E   E
e|--------------10----14----|--15--14--12----------------------|
B|--7S----10----------------|--------------15--14--12----------|
G|--------------------------|--------------------------14--12--|
D|--------------------------|----------------------------------|
A|--------------------------|----------------------------------|
E|--------------------------|----------------------------------|

     E   E   E   E   E   E   Q
e|--------------------------------|
B|--------------------------------|
G|--18--16--14--------------------|
D|--------------17--16--14S--7----|
A|--------------------------------|
E|--------------------------------|

                   |----3---|
   S  S  S S  S S  E    E   E   S  S  S  S   E
e|---------------9-12S--17--12-------------------|
B|------------10----------------14---------------|
G|----------9----------------------14------------|
D|-------11---------------------------14---------|
A|--7-12---------------------------------12S-16--|
E|-----------------------------------------------|

                |-----5-----|
    S  S  S  S  S  S  S  S  S  Q     Q        Q      E   E   Q      E   E
e|--21-17-------17-12----------------------|--17~----14--15--17~----14--15--|
B|--------17----------14-------------------|--------------------------------|
G|-----------18----------14----------------|--------------------------------|
D|--------------------------14-------------|--------------------------------|
A|-----------------------------12~---------|--------------------------------|
E|-----------------------------------------|--------------------------------|

     E   E   E   E   E   E   E   E      Q      E   E   Q      E   E
e|--17----------------------14--15--|--14~------------14~------------|
B|--------------14--15--17----------|---------15--17-----------------|
G|------14--16----------------------|--------------------------------|
D|----------------------------------|------------------------16--17--|
A|----------------------------------|--------------------------------|
E|----------------------------------|--------------------------------|

     E   E   E   E   E   E   E   E      Q      E   E   Q      E   E
e|----------------------------------|--------------------------------|
B|----------------------15--14--15--|--------------------------------|
G|--14--16--14------14--------------|---------16--14-----------------|
D|--------------17------------------|--17~------------17~----16--14--|
A|----------------------------------|--------------------------------|
E|----------------------------------|--------------------------------|

     E   E   E   E   E   E   E   E      Q      E   E   Q      E   E
e|----------------------------------|--------------------------------|
B|----------------------------------|------------------------14--15--|
G|--------------------------14--16--|---------16--14--16~------------|
D|--16--14------14--16--17----------|--17~---------------------------|
A|----------17----------------------|--------------------------------|
E|----------------------------------|--------------------------------|

     E   E   E   E   E   E   E   E      Q      E   E   Q      E   E
e|----------------------14--15--17--|--14~------------14~------------|
B|----------14--15--17--------------|---------15--17---------17--15--|
G|--14--16--------------------------|--------------------------------|
D|----------------------------------|--------------------------------|
A|----------------------------------|--------------------------------|
E|----------------------------------|--------------------------------|

     E   E   E   E   Q      E   E      Q      E   E   Q      E   E
e|---------------------------------|--------------------------------|
B|--17--14--15--17--17b----15--14--|--15~--------14--15~------------|
G|---------------------------------|---------16---------------------|
D|---------------------------------|------------------------16--17--|
A|---------------------------------|--------------------------------|
E|---------------------------------|--------------------------------|

     E   E   E   E   E   E   E   E      Q      E   E   Q      E   E
e|----------------------------------|--------------------------------|
B|----------------------15--14--15--|---------15--14-----------------|
G|--14--16--14------14--------------|--16~------------16~----14------|
D|--------------17------------------|----------------------------17--|
A|----------------------------------|--------------------------------|
E|----------------------------------|--------------------------------|

     E   E   E   E   E   E   E   E      Q      E   E   Q      E   E
e|----------------------------------|--------------------------------|
B|--------------------------14--15--|---------15--14--15~----14------|
G|--14--------------14--16----------|--16~-----------------------16--|
D|------17--16--17------------------|--------------------------------|
A|----------------------------------|--------------------------------|
E|----------------------------------|--------------------------------|

                                                        PM PM
     E   E   E   E   E   E   E   E      H         E  E  E  E
e|----------------------------------|-------------------------|
B|--14--15--17--15--14--15------14--|--15~--------8--7--------|
G|--------------------------16------|-------------------------|
D|----------------------------------|-------------------------|
A|----------------------------------|-------------------5--5--|
E|----------------------------------|-------------------------|

         PM PM       PM PM         PM PM    PM    PM         PM PM    PM    PM
    Q    E  E  E  E  E  E     Q    E  E  E  E  E  E     Q    E  E  E  E  E  E
e|-------------------------|-------------------------|-------------------------|
B|-------------5--7--------|-------------2-----3-----|-------------------------|
G|-------------------------|--4----------------------|-------------------------|
D|--7----------------------|--4----------------------|--4----------2-----4-----|
A|--7----------------0--0--|--2----2--2-----2-----2--|--4----------2-----4-----|
E|--5----5--5--------------|-------------------------|--2----2--2--0--0--2--2--|

         PM PM PM                  PM PM                     PM PM
    Q    E  E  E  Q     E     Q    E  E  E  E  E  E     Q    E  E  E   E   E  E
e|-------------------------|-------------------------|---------------------------|
B|-------------------------|-------------8--7--5-----|---------------------------|
G|----------------4S----6--|--7-------------------7--|-------------4S--6h--7--6--|
D|--5-------------5S----7--|--7----------------------|--5------------------------|
A|--5----------------------|--5----5--5--------------|--5------------------------|
E|--3----3--3--3-----------|-------------------------|--3----3--3----------------|

    |---3---|   |---3---|   |---3---|   |---3---|
    E   E   E   E   E   E   E   E   E   E   E   E      W
e|--------------------------------------------------|----------------------|
B|--------------------------------------14--15--17--|--17b~----------------|
G|--------------14--16--18--14--16--18--------------|----------------------|
D|--14--16--17--------------------------------------|----------------------|
A|--------------------------------------------------|----------------------|
E|--------------------------------------------------|----------------------|

       H.            Q        H         E     Q.
e|------------------------|-----------------------------|
B|--<>17b-----------------|--15~-----------<>15brb------|
G|------------------------|-----------------------------|
D|------------------------|-----------------------------|
A|------------------------|-----------------------------|
E|------------------------|-----------------------------|

                      PM  PM
     H          Q     E   E        H         E   Q     E
e|---------------------------|----------------------------|
B|--14~----------------------|----------------------------|
G|-------------14------------|--<>16~--------L--14----12--|
D|-------------------12--12--|----------------------------|
A|---------------------------|----------------------------|
E|---------------------------|----------------------------|

     Q     Q     H             S  S  S  S  S  S  S  S  S  S  S  S  S  S  S  S
e|-------------------------|--------------------------------------------------|
B|--------15---------------|--------------12-12-12-12-14-14-14-14-15-15-15-15-|
G|--14----------11~--------|--12-12-12-12-------------------------------------|
D|-------------------------|--------------------------------------------------|
A|-------------------------|--------------------------------------------------|
E|-------------------------|--------------------------------------------------|

                                        |-----5-----|
    S  S  S  S  S  S  S  S  S  S  S  S  S  S  S  S  S     H.              Q
e|-----------14-15-17-15-14----------------------------|------------------------|
B|--14-15-17----------------17-15-14----------14-15-17-|--17b~------------22----|
G|-----------------------------------16-14-16----------|------------------------|
D|-----------------------------------------------------|------------------------|
A|-----------------------------------------------------|------------------------|
E|-----------------------------------------------------|------------------------|

     H            Q     Q        H         E   Q.
e|---------------------------|---------------------------|
B|--17pbr--------15----14----|--15~-----------15pbr------|
G|---------------------------|---------------------------|
D|---------------------------|---------------------------|
A|---------------------------|---------------------------|
E|---------------------------|---------------------------|

     Q     Q     Q     Q        Q      Q     Q     Q
e|--------14----17~---------|--19~----17----15----19----|
B|--14----------------------|---------------------------|
G|--------------------------|---------------------------|
D|--------------------------|---------------------------|
A|--------------------------|---------------------------|
E|--------------------------|---------------------------|

     Q      Q     H              S  S  S  S  S  S  S  S  S  S  S  S  S  S  S  S
e|--17~----21----21b~--------|--19-15----------15-19-15-19-15----------15-19-15-|
B|---------------------------|--------15----15----------------15----15----------|
G|---------------------------|-----------16----------------------16-------------|
D|---------------------------|--------------------------------------------------|
A|---------------------------|--------------------------------------------------|
E|---------------------------|--------------------------------------------------|

                                             PM    PM    PM
     S  S  S  S  S  S  S  S  H            E  E  E  E  E  E  E   E
e|--21-17-------21-17------------------|---------------------------|
B|--------17----------17---------------|---------------------------|
G|-----------18----------18S-9~--------|--7-----6-----7------------|
D|-------------------------------------|-----0-----0-----0--4h--5--|
A|-------------------------------------|---------------------------|
E|-------------------------------------|---------------------------|

                                       PM    PM    PM    PM
    E   E  E   E   E   E  E   E     E  E  E  E  E  E  E  E
e|-------------------------------|--------------------------|
B|-------------------------------|--3--0--2--0--3--0--7--0--|
G|------------------------6S--2--|--------------------------|
D|--7S--9--7p--6h--7h--9---------|--------------------------|
A|-------------------------------|--------------------------|
E|-------------------------------|--------------------------|

              PM
       Q.     E  E  E  E   E      E  E   E  E  E  E   E  E
e|----------------------------|-----------------------------|
B|--<>10---------------7--10--|--12--0--10--0--8--0--12--0--|
G|------------6--7--9---------|-----------------------------|
D|----------------------------|-----------------------------|
A|----------------------------|-----------------------------|
E|----------------------------|-----------------------------|

          |---3---|
    Q     E   E   E   Q.      E
e|--------------------------------|
B|--10------------10--15~---------|
G|------------11------------------|
D|--------12----------------------|
A|--------------------------------|
E|--------------------------------|

     S  S  S  S  S  S  S  S  S  S  S  S  S  S  S  S
e|--------------------------------------------------|
B|--15-12----------------12-15-12----------------12-|
G|--------12----------12----------12----------12----|
D|-----------12----12----------------12----12-------|
A|--------------14----------------------14----------|
E|--------------------------------------------------|

                                            PM    PM    PM
     S  S  S  S  S  S  S  S H            E  E  E  E  E  E  E   E
e|------------------------------------|---------------------------|
B|--17-14-------17-14-----------------|---------------------------|
G|--------14----------14--------------|--7-----6-----7------------|
D|-----------14----------14-7~--------|-----0-----0-----0--4h--5--|
A|------------------------------------|---------------------------|
E|------------------------------------|---------------------------|

                                       PM    PM    PM    PM
    E   E  E   E   E   E  E   E     E  E  E  E  E  E  E  E
e|-------------------------------|--------------------------|
B|-------------------------------|--3--0--2--0--3--0--7--0--|
G|------------------------6S--2--|--------------------------|
D|--7S--9--7p--6h--7h--9---------|--------------------------|
A|-------------------------------|--------------------------|
E|-------------------------------|--------------------------|

       W                     E  E   E  E  E  E   E  E
e|-----------------------|-----------------------------|
B|--<>10b----------------|--12--0--10--0--8--0--12--0--|
G|-----------------------|-----------------------------|
D|-----------------------|-----------------------------|
A|-----------------------|-----------------------------|
E|-----------------------|-----------------------------|

     Q      S  S  S  S  S  S  S  S  S  S  S  S
e|------------------10-14-17-14----------14-17-|
B|--10~----------10-------------15----15-------|
G|------------11-------------------14----------|
D|---------12----------------------------------|
A|---------------------------------------------|
E|---------------------------------------------|

     S  S  S  S  S  S  S  S  S  S  S  S  S  S  S  S     H.             Q
e|--19-15----------15-19-15-19-15----------15-19-15-|--19b~-----------------|
B|--------15----15----------------15----15----------|-----------------------|
G|-----------16----------------------16-------------|-----------------------|
D|--------------------------------------------------|-----------------------|
A|--------------------------------------------------|-----------------------|
E|--------------------------------------------------|-----------------------|

     Q      E   E   Q      E   E      E   E   E   E   E   E   E   E
e|--17~----14--15--17~----14--15--|--17----------------------14--15--|
B|--------------------------------|--------------14--15--17----------|
G|--------------------------------|------14--16----------------------|
D|--------------------------------|----------------------------------|
A|--------------------------------|----------------------------------|
E|--------------------------------|----------------------------------|

     Q      E   E   Q      E   E      E   E   E   E   E   E   E   E
e|--14~------------14~------------|----------------------------------|
B|---------15--17-----------------|----------------------15--14--15--|
G|--------------------------------|--14--16--14------14--------------|
D|------------------------16--17--|--------------17------------------|
A|--------------------------------|----------------------------------|
E|--------------------------------|----------------------------------|

     Q      E   E   Q      E   E      E   E   E   E   E   E   E   E
e|--------------------------------|----------------------------------|
B|--------------------------------|----------------------------------|
G|---------16--14-----------------|--------------------------14--16--|
D|--17~------------17~----16--14--|--16--14------14--16--17----------|
A|--------------------------------|----------17----------------------|
E|--------------------------------|----------------------------------|

     Q      E   E   Q      E   E      E   E   E   E   E   E   E   E
e|--------------------------------|----------------------14--15--17--|
B|------------------------14--15--|----------14--15--17--------------|
G|---------16--14--16~------------|--14--16--------------------------|
D|--17~---------------------------|----------------------------------|
A|--------------------------------|----------------------------------|
E|--------------------------------|----------------------------------|

     Q      E   E   Q      E   E      E   E   E   E   Q      E   E
e|--14~------------14~------------|---------------------------------|
B|---------15--17---------17--15--|--17--14--15--17--17b----15--14--|
G|--------------------------------|---------------------------------|
D|--------------------------------|---------------------------------|
A|--------------------------------|---------------------------------|
E|--------------------------------|---------------------------------|

     Q      E   E   Q      E   E      E   E   E   E   E   E   E   E
e|--------------------------------|----------------------------------|
B|--15~--------14--15~------------|----------------------15--14--15--|
G|---------16---------------------|--14--16--14------14--------------|
D|------------------------16--17--|--------------17------------------|
A|--------------------------------|----------------------------------|
E|--------------------------------|----------------------------------|

     Q      E   E   Q      E   E      E   E   E   E   E   E   E   E
e|--------------------------------|----------------------------------|
B|---------15--14-----------------|--------------------------14--15--|
G|--16~------------16~----14------|--14--------------14--16----------|
D|----------------------------17--|------17--16--17------------------|
A|--------------------------------|----------------------------------|
E|--------------------------------|----------------------------------|

     Q      E   E   Q      E   E      E   E   E   E   E   E   E   E
e|--------------------------------|----------------------------------|
B|---------15--14--15~----14------|--14--15--17--15--14--15------14--|
G|--16~-----------------------16--|--------------------------16------|
D|--------------------------------|----------------------------------|
A|--------------------------------|----------------------------------|
E|--------------------------------|----------------------------------|

     W                 H           H.            Q       Q    Q    E   S  S Q
e|------------------------------|---------------------|--------------------------|
B|--15~-------------------------|---------------------|--------------------------|
G|------------------------------|---------------------|--------------------------|
D|------------------------------|--7~-----------------|--7----9----7h--9p-7-5----|
A|------------------------------|---------------------|--------------------------|
E|------------------------------|---------------------|--------------------------|

    H.            Q       Q    Q    E   S  S Q       Q    Q    Q    Q
e|---------------------|--------------------------|----------------------|
B|---------------------|--7----8----7h--8p-7------|----------------------|
G|---------------------|---------------------9----|--7----6----4----6----|
D|--4~-----------------|--------------------------|----------------------|
A|---------------------|--------------------------|----------------------|
E|---------------------|--------------------------|----------------------|

    H.            Q       Q    Q    Q    Q       W
e|---------------------|----------------------|--------------------|
B|---------------------|----------------------|--------------------|
G|--7~-----------------|--7----6----4----5----|--6~----------------|
D|---------------------|----------------------|--------------------|
A|---------------------|----------------------|--------------------|
E|---------------------|----------------------|--------------------|

       PM    PM    PM     PM             PM          PM
    E  E  E  E  E  E   E  E      E    E  E   E    E  E  E   E
e|---------------------------|---------------------------------|
B|---------------------------|---------------------------------|
G|--7-----6-----7-----11-----|--11S--14-----12S--11-----9S--6--|
D|-----0-----0-----0------0--|-----------0-----------0---------|
A|---------------------------|---------------------------------|
E|---------------------------|---------------------------------|

       PM    PM    PM     PM             PM          PM
    E  E  E  E  E  E   E  E      E    E  E   E    E  E   E    E
e|---------------------------|-----------------------------------|
B|---------------------------|--------------------------14S--10--|
G|--7-----6-----7-----11-----|--11S--14-----16S--14--------------|
D|-----0-----0-----0------0--|-----------0-----------0-----------|
A|---------------------------|-----------------------------------|
E|---------------------------|-----------------------------------|

    |---3---|   |---3--|  |---3--|  |--3--|
    E   E   E   E  E   E  E   E  E  E  E  E
e|--------------------------------------------|
B|--12--12--10--12--8--12--7--10--8--7--------|
G|--------------------------------------9--7--|
D|--------------------------------------------|
A|--------------------------------------------|
E|--------------------------------------------|

    |---3--|   |---3--|  |---3--|  |--3--|
    E   E  E   E  E   E  E  E   E  E  E  E
e|-------------------------------------------|
B|--10--10--8--10--7--10---------------------|
G|------------------------9--7S--6-----------|
D|----------------------------------9--7--5--|
A|-------------------------------------------|
E|-------------------------------------------|

   |--3--|  |--3--|  |--3--|  |--3--|
   E  E  E  E  E  E  E  E  E  E  E  E
e|--------------------------------------|
B|-----------------------------5--7--8--|
G|-----------4--6--7--4--6--7-----------|
D|--4--5--7-----------------------------|
A|--------------------------------------|
E|--------------------------------------|

   |--3--|  |--3--|
   E  E  E  E  E  E   S S S  S  S S  S  S
e|-----------5--7--9--10-7-9-10-12-9-10-12-|
B|--5--7--8--------------------------------|
G|-----------------------------------------|
D|-----------------------------------------|
A|-----------------------------------------|
E|-----------------------------------------|

     S  S  S  S  S  S  S  S  S  S  S  S  S  S  S  S
e|--14-10----------10-14-10-14-10----------10-14-10-|
B|--------10----10----------------10----10----------|
G|-----------11----------------------11-------------|
D|--------------------------------------------------|
A|--------------------------------------------------|
E|--------------------------------------------------|

     S S  S S  S S  S S  S S  S S  S S  S S
e|--12-9---------9-12-9-14-9------12-9------|
B|-------10---10-------------10--------10---|
G|----------9-------------------9---------9-|
D|------------------------------------------|
A|------------------------------------------|
E|------------------------------------------|

     S S S S S S  S S  S S S S S S  S S    S S S S S S S S S S S S S S S S
e|--10-7-------7-10-7-10-7-------7-10-7-|--9-5-------5-9-5-5-2-----5-2-----|
B|-------7---7-------------7---7--------|------7---7-----------2-------2---|
G|---------7-----------------7----------|--------6---------------2-------2-|
D|--------------------------------------|----------------------------------|
A|--------------------------------------|----------------------------------|
E|--------------------------------------|----------------------------------|

    S S S S S S S S  S S S S S S  S S
e|--7-3-------3-7-3-10-7-------7-10-7-|
B|------3---3------------8---8--------|
G|--------4----------------7----------|
D|------------------------------------|
A|------------------------------------|
E|------------------------------------|

     S  S  S  S  S  S  S  S  S  S  S  S  S  S  S  S
e|--14-10-------14-10-------15-10-------17-14-------|
B|--------10----------10----------10----------15----|
G|-----------11----------11----------11----------14-|
D|--------------------------------------------------|
A|--------------------------------------------------|
E|--------------------------------------------------|

     S  S  S  S  S  S  S  S  S  S  S  S  S  S  S  S
e|--19-15----------15-19-15-19-15----------15-19-15-|
B|--------15----15----------------15----15----------|
G|-----------16----------------------16-------------|
D|--------------------------------------------------|
A|--------------------------------------------------|
E|--------------------------------------------------|

     S  S  S  S  S  S  S  S  S  S  S  S  Q         Q      E   E   Q      E   E
e|--17-12--------------------------------------|--17~----13--15--17~----13--15--|
B|--------14----17-14--------------------------|--------------------------------|
G|-----------14-------14----18-14--------------|--------------------------------|
D|-----------------------14-------14-----------|--------------------------------|
A|-----------------------------------16-12~----|--------------------------------|
E|---------------------------------------------|--------------------------------|

     E   E   E   E   E   E   E   E      Q      E   E   Q      E   E
e|--17----------------------13--15--|--13~------------13~------------|
B|--------------14--15--17----------|---------15--17-----------------|
G|------14--15----------------------|--------------------------------|
D|----------------------------------|------------------------15--17--|
A|----------------------------------|--------------------------------|
E|----------------------------------|--------------------------------|

     E   E   E   E   E   E   E   E      Q      E   E   Q      E   E
e|----------------------------------|--------------------------------|
B|----------------------15--14--15--|--11~----15--13--11~------------|
G|--14--15--14------14--------------|------------------------14--12--|
D|--------------17------------------|--------------------------------|
A|----------------------------------|--------------------------------|
E|----------------------------------|--------------------------------|

     E   E   E   E   E   E   E   E      Q      E   E   Q      E   E
e|----------------------------------|------------------------12--13--|
B|----------------------11--14--15--|--11~----15--14--15~------------|
G|--14--12--10--12--14--------------|--------------------------------|
D|----------------------------------|--------------------------------|
A|----------------------------------|--------------------------------|
E|----------------------------------|--------------------------------|

     E   E   E   E   E   E   E   E      Q      E   E   Q      E   E
e|----------------------13--15--17--|--13~------------13~------------|
B|----------14--15--17--------------|---------15--17---------17--15--|
G|--14--15--------------------------|--------------------------------|
D|----------------------------------|--------------------------------|
A|----------------------------------|--------------------------------|
E|----------------------------------|--------------------------------|

     E   E   E   E   Q      E   E      Q      E   E   Q      E   E
e|---------------------------------|--------------------------------|
B|--17--14--15--17--17b----15--14--|--15~--------14--15~------------|
G|---------------------------------|---------15---------------------|
D|---------------------------------|------------------------15--17--|
A|---------------------------------|--------------------------------|
E|---------------------------------|--------------------------------|

     E   E   E   E   E   E   E   E      Q      E   E   Q      E   E
e|----------------------------------|--------------------------------|
B|----------------------15--14--15--|--11~----15--13--11~------------|
G|--14--15--14------14--------------|------------------------14--12--|
D|--------------17------------------|--------------------------------|
A|----------------------------------|--------------------------------|
E|----------------------------------|--------------------------------|

                                                             |---3---|
    E   E   E   E   E   E   E   E      Q      E   E   Q      E   E   E
e|----------------------------------|------------------------------------|
B|----------------------11--14--15--|--11~----15--14--15~----------------|
G|--14--12--10--12--14--------------|------------------------------------|
D|----------------------------------|------------------------------------|
A|----------------------------------|------------------------12--14--16--|
E|----------------------------------|------------------------------------|

    |---3---|   |---3---|   |---3---|   |---3---|
    E   E   E   E   E   E   E   E   E   E   E   E     W
e|--------------------------------------14--15--17--|-------------------|
B|--------------------------14--15--17--------------|-------------------|
G|--------------12--14--16--------------------------|-------------------|
D|--12--14--16--------------------------------------|-------------------|
A|--------------------------------------------------|-------------------|
E|--------------------------------------------------|-------------------|

     E   E   E   E   E   E   E   E      Q      E   E   Q      E   E
e|--17----------------------14--15--|--14~------------14~----14--15--|
B|--------------14--15--17----------|---------15--17-----------------|
G|------14--16----------------------|--------------------------------|
D|----------------------------------|--------------------------------|
A|----------------------------------|--------------------------------|
E|----------------------------------|--------------------------------|

                    |-----3-----|                   |-----3-----|
    E   E   E   E   Q     Q     Q        H          Q     Q     Q
e|--17--19--17--15--17----19----21----|--21b~--------L----21----19----|
B|------------------------------------|-------------------------------|
G|------------------------------------|-------------------------------|
D|------------------------------------|-------------------------------|
A|------------------------------------|-------------------------------|
E|------------------------------------|-------------------------------|

     Q.       S   S   S   S   S   S   S  S   S   S
e|--17~------14h-17h-19p-17p-14h-17p-14------------|
B|--------------------------------------17h-19p-17-|
G|-------------------------------------------------|
D|-------------------------------------------------|
A|-------------------------------------------------|
E|-------------------------------------------------|

     S   S   S   S   S  S   S   S   S   S   S  S   S   S   S   S
e|---------------------------------------------------------------|
B|--19p-17p-15h-17p-15-------------------------------------------|
G|---------------------16h-19p-16p-14h-16p-14--------------------|
D|--------------------------------------------16h-19p-16p-14h-16-|
A|---------------------------------------------------------------|
E|---------------------------------------------------------------|

    |-------5-------|  |-------5-------|
    S   S   S   S   S  S   S   S   S   S   H
e|----------------------------------------------------|
B|----------------------------------------------------|
G|----------------------------------------------------|
D|--19p-16p-14h-16p-14--------------------------------|
A|---------------------19p-16p-14h-16p-14p-12~--------|
E|----------------------------------------------------|

     Q      E   E   Q      E   E
e|--17~----14--15--17~----14--15--|
B|--------------------------------|
G|--------------------------------|
D|--------------------------------|
A|--------------------------------|
E|--------------------------------|

    |---3---|   |---3---|   |---3---|   |---3---|
    E   E   E   E   E   E   E   E   E   E   E   E      W
e|--18--18--15--18--14--18------18------18------18--|--19b~----------------|
B|--------------------------17------15------14------|----------------------|
G|--------------------------------------------------|----------------------|
D|--------------------------------------------------|----------------------|
A|--------------------------------------------------|----------------------|
E|--------------------------------------------------|----------------------|

    Q     E    E   E   E   E   E      H.              E   E
e|--L----19p--17------------------|--17b~------------17--15--|
B|----------------19--18--17--15--|--------------------------|
G|--------------------------------|--------------------------|
D|--------------------------------|--------------------------|
A|--------------------------------|--------------------------|
E|--------------------------------|--------------------------|

     Q     S   S   S   S  S   S   S   S   S   S   S   S
e|--14----15h-17p-15p-14--------------------------------|
B|-----------------------17p-15p-14S-12h-14h-15p-14p-12-|
G|------------------------------------------------------|
D|------------------------------------------------------|
A|------------------------------------------------------|
E|------------------------------------------------------|

     S   S   S   S   S   S   S  S   S   S   S  S  S   S  S   S
e|--------------------------------------------------------------|
B|--------------------------------------------------------------|
G|--14p-12p-11h-12h-14p-12p-11S-9h-11h-12p-11p-9----------------|
D|-----------------------------------------------12p-11p-9h-11h-|
A|--------------------------------------------------------------|
E|--------------------------------------------------------------|

     S   S  S   S   S   S  S   S  Q     Q        H         Q     Q
e|-------------------------------------------|------------------17----|
B|-------------------------------------------|--15~-------------------|
G|-------------------------------------------|------------------------|
D|--12p-11p-9h-11h-12p-11p-9h-11p-7~---------|------------------------|
A|-------------------------------------------|------------------------|
E|-------------------------------------------|------------------------|

     H          Q     Q        H        Q     Q        Q     Q     Q     Q
e|--17b--------17----15----|--14-------------14----|--14----15----14----------|
B|-------------------------|-----------------------|--------------------17----|
G|-------------------------|-----------------------|--------------------------|
D|-------------------------|-----------------------|--------------------------|
A|-------------------------|-----------------------|--------------------------|
E|-------------------------|-----------------------|--------------------------|

                 PM PM  PM PM
     Q     Q     E  E   E  E      H          S   S   S   S   S   S   S   S
e|----------------------------|--------------------------------------------|
B|--15----14----12--0--14--0--|--15~--------14h-15p-14h-15p-14h-15p-14h-15-|
G|----------------------------|--------------------------------------------|
D|----------------------------|--------------------------------------------|
A|----------------------------|--------------------------------------------|
E|----------------------------|--------------------------------------------|

             PM PM  PM PM  PM PM
                                           |-----5-----|
      Q      E  E   E  E   E  E      Q     S  S  S  S  S  Q     Q
e|--------------------------------|--------17-12----------------------|
B|--<>15~----14--0--12--0--13--0--|--14----------14-------------------|
G|--------------------------------|-----------------14----------------|
D|--------------------------------|--------------------14-------------|
A|--------------------------------|-----------------------12~---------|
E|--------------------------------|-----------------------------------|

                                              |----3----|
    H         Q     Q        H          Q     E    E    E
e|------------------17----|--17b--------17----15h--17p--15--|
B|--15~-------------------|---------------------------------|
G|------------------------|---------------------------------|
D|------------------------|---------------------------------|
A|------------------------|---------------------------------|
E|------------------------|---------------------------------|

     Q.      Q.      Q        W                     H          Q     Q
e|--14------17------17----|--20b----------------|--19~--------19----21----|
B|------------------------|---------------------|-------------------------|
G|------------------------|---------------------|-------------------------|
D|------------------------|---------------------|-------------------------|
A|------------------------|---------------------|-------------------------|
E|------------------------|---------------------|-------------------------|

     Q.       E    H            Q      E   Q      E   Q
e|--21b------17~---L--------|--19S----17--17S----15--15S----|
B|--------------------------|-------------------------------|
G|--------------------------|-------------------------------|
D|--------------------------|-------------------------------|
A|--------------------------|-------------------------------|
E|--------------------------|-------------------------------|

     E   Q      E   Q     Q        Q.      E   E    E    E   E
e|--14--14S----12--12-----------|--------------------------------|
B|------------------------------|---------10--10S--12p--10S--8S--|
G|-----------------------14S----|--7-----------------------------|
D|------------------------------|--------------------------------|
A|------------------------------|--------------------------------|
E|------------------------------|--------------------------------|

                      |--3--|
   Q    E  E  E   E   S  S  S E     E   E   E   E   Q     Q
e|--------------------------------|-----------------------------|
B|--7-------7--7h--8p--7h-8p-7----|-----------------------------|
G|-----------------------------9--|--7p--6p--4h--6h--7~---------|
D|--------------------------------|-----------------------------|
A|--------------------------------|-----------------------------|
E|--------------------------------|-----------------------------|

    E   E   E   E   Q      Q        Q     E   E   Q      E    E
e|------------------------------|------------17--17b----17p--15--|
B|------------------------------|--15~---------------------------|
G|--7p--6p--4h--5h--6S----14----|--------------------------------|
D|------------------------------|--------------------------------|
A|------------------------------|--------------------------------|
E|------------------------------|--------------------------------|

     Q     E   E   E    E    E   E      E    E   E    E   Q.      E
e|--14~-------14--14h--15p--14------|--------------------------------|
B|------------------------------17--|--15p--14--12h--14--15~---------|
G|----------------------------------|--------------------------------|
D|----------------------------------|--------------------------------|
A|----------------------------------|--------------------------------|
E|----------------------------------|--------------------------------|

     E    E   E    E   Q.       S   S     W
e|------------------------------------|---------------------||
B|--15p--14--12h--13--14~------15S-17-|--15~----------------||
G|------------------------------------|---------------------||
D|------------------------------------|---------------------||
A|------------------------------------|---------------------||
E|------------------------------------|---------------------||



************************************

| h    Hammer-on
| p    Pull-off
| b    Bend
| br   Bend release
| pbr  Pre-bend release
| /    Slide up
| \    Slide down
| ~    Vibrato

************************************
Suggest correction
comments
print report bad tab
3 comments total.
0 reply
arman09 10 Mar 01, 2013 08:39 PM

I'm not familiar in the letter, what is it?

0 reply
jhayson14 68 Aug 04, 2013 01:29 AM

Duration Legend
---------------
W - whole
H - half
Q - quarter
E - 8th
S - 16th
T - 32nd
X - 64th
. - note dotted
|-n-| - n-tuplets

0 reply
song650815 10 Mar 29, 2016 08:53 AM

|-----3-----|
Q Q Q
----------------------------
----------------------------
-----~--------L----14----12-

I don't get the L . wth is L???

guest
You may want to rate the tab now too:
select rating
Wanna post a correction for this tab? Suggest correction