Oops, an error
Loading. Please wait.

Fields Of Gold Tab

version 1
version 1

Whole song

Interactive

42,679 views 27 this week
2 commentsread comments
1 2 3 4 5
x 7
add to favorites
launch autoscroll
font size
0
reset
how to read this tab
guitar tuner
Autoscroll
slow
fast
+/-
esc
set tempo
stop
Help us to improve Ultimate-Guitar.com Take our survey!
×
Author
Difficulty
Tuning
advanced
D A D G B E
Sungha Jung - Fields of Gold

Drop D

Tuning - DADGBe

* - Harmonics
h - Hammer-on
p - Pull-off
s - Slide

Matt Blaquiere

E|----------------------------------------------------------------------------|
B|-7*-------------------------------------------------------------------------|
G|-7*-------------------------------------------------------------------------|
D|-7*----x----------x----------x----------x-----------x-----------------------|
A|-7*--2-x-2--2-0-2-x-2--2-0-2-x-2--2-0-2-x-2--2-0-2--x-2---------------------|
D|-7*----x----------x----------x----------x-----------x-----------------------|

E|----------------------------------------------------------------------------|
B|-----3-3-3-------2-2-2-------0-0-0----------------3-2-0---x-----------------|
G|--------------------------------------------------2-2---2-x-2---------------|
D|-----------x-----------x-----------x----------x---------0-x-----0-----------|
A|-2-0-2-----x-2-0-2-----x-2-0-2-----x-2--2-0-2-x-2-----2---------------------|
D|-----------x-----------x-----------x----------x---------------4-------------|

E|----------------------------------------------------------------------------|
B|-3-2-0---x-0-----------0--------------------3s2-0---x--------3s2-0----x-0---|
G|-2-2-2-2-x-2---------2-2--2-2-------2----2--2-----2-x-2------2---2--2-x-2---|
D|-------0-x-----0h2h4----------------4--4------------x-0---0---------0-x-----|
A|------------------------------0-----------------2---------------------------|
D|-----5-------0---------5--------2s4----------------------4-------5----------|

E|--------------------10---7---7-----10p9p7---------------------------10------|
B|---------------------7-7---7-----7---------10-8---10----7-------8-------7---|
G|---------------------7----------------------------11------------7-----------|
D|------4-5---4--4p2---------------------------------0--0-----0---9-----------|
A|-0--------------4-----------------------------------------------------------|
D|----0-----5--------0-----------9-------------------0------0-----------------|

E|----------------------------------------------------------------------------|
B|-----0--3-2-0---x--------3-2-0---x-0----------------0-----------------------|
G|--------2-2---2-x-2------2-2-2-2-x-2--------------2-2---2-2-----------2---2-|
D|---0----------0-x-----0--------0-x----------0s2s4-----0-------2--2s4--4-4---|
A|------------2--------------------------0s2s4----------------0---------------|
D|-0---0--------------4--------5-------0--------------5-----------------------|

E|----------------------------------------------------------------------------|
B|---3s2-0---x-------3-2-0---x-0----------------------------------------------|
G|---2-----2-x-2-----2-2-2-2-x-2----------------------------------------------|
D|-----------x-0---0-------0-x----0----4-5---4-4s2----------------------------|
A|-------2--------------------------------------4-----------------------------|
D|-0-------------4-------5----------0------5--------0------0--------4---5-----|


E|-5---5-5-5---5h7p5-5-5---5------5---5-5-5---5h7p5-5-5-----------------------|
B|-5---5-5-5---5---------7-5------5---5-5-5---5----------7--5--7--8---5-------|
G|-7-7-7-7-7-7-7---------7-7------7-7-7-7-7-7-7----------7----------7-----7-6-|
D|----------------------------------------------------------------------------|
A|---------------------------0------------------------------------------0-----|
D|------------------------------5---------------------------------5-----------|

E|-------------10-9-7-------------10-9-7--------------------------------------|
B|--------------------10-x-10------------10-x-10---5-7-8-7-5-------5---7------|
G|-7-------------------7-x--7-------------7-x--7---------7-7---7---7---7------|
D|-----------------------x------------------x----0----------------------------|
A|-----------------------------------------------------------0----------------|
D|---0-0--0-0-------9---------9-7------5---------------5---------0---0--------|

E|-----------10-9-7-------------10-9-7----------------------------------------|
B|------------------10---10------------10---10---5-7-8-7-5--------------------|
G|-------------------7----7-------------7----7---------7-7---7-7--------------|
D|-------0-------------x------------------x----0------------------------------|
A|-0h2h4---------------x------------------x----------------0------------------|
D|---------0------9----x----9-7------5----x----------5-----------0-0--0-0-----|

E|----------------------------------------------------------------------------|
B|-3p2-0---x-------3-2-0---x-0-----------0-------------------3p2-0---x--------|
G|-2-----2-x-2-----2-2-2-2-x-2---------2-2-2-2------2----2---2-----2-x-2------|
D|-------0-x-----0-------0-x-----0h2h4---------2s4--4--4-------------x-0---0--|
A|-----2---------------------------------------------------------2------------|
D|-------------4-------5-------0---------5-----------------0-------------4----|

E|----------------------------------------------------------------------------|
B|-3-2-0---x-0----------------------3-2-0---x-------3-2-0---x-0---------------|
G|-2---2-2-x-2----------------------2-2---2-x-2-----2-2-2-2-x-2---------------|
D|-------0-x---0---4-5---4-4s2------------0-x-----0-------0-x------------0h2h4|
A|--------------------------4-----------2--------------------------0h2h4------|
D|-----5---------0-----5-------0--0-------------4-------5--------0-------------|

E|----------------------------------------------------------------------------|
B|---0--------------------------3s2-0---x--------3-2-0---x-0------------------|
G|-2-2---2-2-----------2----2---2-----2-x-2------2---2-2-x-2------------------|
D|-----0-------2--2s4--4--4-------------x-0---0--------0-x---0---4-5---4-4s2--|
A|----------------------------------2-------------------------------------4---|
D|---5-------0----------------0-------------4--------5---------0-----5-------0|

E|----------------------------------------------------------------------------|
B|----------------------------------------------------------------------------|
G|----------------------------------------------------------------------------|
D|------2--4--5----4-4s2--0--------2--4--5------4--4s2-----------0------------|
A|--------------------4-----------------------------4-------------------------|
D|-0--0----------5-----------0--0------------5-------------0------------------|
Suggest correction
comments
print report bad tab
2 comments total.
+1 reply
Frusciante19 20 Oct 08, 2010 02:50 PM

thank you SO MUCH for putting this up

0 reply
Rituna99 32 Dec 30, 2011 12:03 PM

Sungha is awesome! He's not even bad looking.. And thanks for tabs! ;)

guest
You may want to rate the tab now too:
select rating
Wanna post a correction for this tab? Suggest correction