Oops, an error
Loading. Please wait.

Grenade Tab

version 1
version 1

Whole song

Interactive

44,053 views 69 this week
1 commentread comment
1 2 3 4 5
x 8
add to favorites
launch autoscroll
font size
0
reset
how to read this tab
guitar tuner
Autoscroll
slow
fast
+/-
esc
set tempo
stop
Help us to improve Ultimate-Guitar.com Take our survey!
×
Capo
5th fret
-------------------------------------------------------------------------------
                                  Grenade 
-------------------------------------------------------------------------------
 
Tuning: Standard (Capo 5)
 
[Intro/Interlude]

e|-----------------------------------------------------|
B|---1--------1--------1---------1--------1--------1---|
G|------2--------2--------2---------2--------2---------|
D|---------2--------2---------2--------2--------2------|
A|-----------------------------------------------------|
E|-----------------------------------------------------|

e|-----------------------------------------------------|
B|---0--------0--------0----------0--------0--------0--|
G|------0--------0--------0----------0--------0--------|
D|---------2--------2---------2---------2--------2-----|
A|-----------------------------------------------------|
E|-----------------------------------------------------|

e|-----------------------------------------------------|
B|---1--------1--------1---------1--------1--------1---|
G|------2--------2--------2---------2--------2---------|
D|---------2--------2---------2--------2--------2------|
A|-----------------------------------------------------|
E|-----------------------------------------------------|

e|-----------------------------------------------------|
B|---0--------0--------0-------------------------------|
G|------0--------0--------0----------1-----------------|
D|---------2--------2----------------------------------|
A|-----------------------------------------------------|
E|-----------------------------------------------------|


[Verse]

e|-------------------------------------------------------------------------|
B|--1----------1------------1----1--1--1----1--3----0----0-----0-----0-----|
G|--2----2-----2----2-------2----2--2--2------------0-------------0--------|
D|-------2--2-------2--2----2-------------------------------2-----------2--|
A|--0----------0------------0----0-----0-----------------------------------|
E|--------------------------------------------------0----------------------|

e|---------------------------------------------------------------------------|
B|--0-----0--0---------------1--1--------1--1----------1----1--1--1----1--3--|
G|-----2---------------------2--2--2-----2--2--2-------2----2--2--2----------|
D|--------------2------------------2--2--------2--2----2---------------------|
A|----------------------2----0-----------0-------------0----0-----0----------|
E|--0-----------0----0-------------------------------------------------------|

e|-----------------------------------------------0----|
B|--0----0-----0------------------0--0--0--0-----1----|
G|--0-------------0-----------1---------------2-------|
D|----------2-----------2-----2-----------------------|
A|-------------------2--------2-----------------------|
E|--0-------------------------------------------------|


[Pre-Chorus]

e|---0--0----------------------------------------------|
B|---1--1--3--3--1--------3-------3--1--1--0--------3--|
G|---------2--2--2--2-----2-------2--2--2--2--2-----2--|
D|-----------------------------------------------------|
A|---0-----------0--0----------0-----------0--0--------|
E|-----------------------------------------------------|

e|-----------------------------------------------------|
B|------3--1--1--0-------------------------------------|
G|------0--0--0--0--0--0-------------------------------|
D|------------------2-----2-------2----------2-----2---|
A|-----------------------------2--2-----2----2---------|
E|---0-----------0--0----------0--------0--------------|

e|---0--0----------------------------------------------|
B|---1--1--3--3--1--------3-------3--1--1--0--------3--|
G|---------2--2--2--2-----2-------2--2--2--2--2-----2--|
D|-----------------------------------------------------|
A|---0-----------0--0----------0-----------0--0--------|
E|-----------------------------------------------------|

e|----------------------------|
B|---------3-----3--1---------|
G|------2--2--2-----------0---|
D|------3--3-----3-----3------|
A|----------------------------|
E|------1--------1------------|


[Chorus]
  
e|-----------------------0---------0--0-----1-----1--|
B|-----3--3--1--3--1--3------------1--1-----1-----1--|
G|-----0--0--0---------------------2--2-----2-----2--|
D|---------------------------------2--2-----3-----3--|
A|----------------------------0----------------------|
E|--3--------3---------------------------1-----------|

e|-----0-----0-----------0---------0--0-----1-----1------0-----0--3--1--0--1--|
B|-----1-----1-----1--3------------1--1-----1-----1------1-----1--3-----------|
G|-----0-----0-----0-----0---------2--2-----2-----2------0-----0-----0-----0--|
D|-----2-----2-----0-----0---------2--2-----3-----3------2-----2-----0-----0--|
A|--3-------------------------0-----------------------3-----------------------|
E|--------------3------------------------1------------------------3-----------|
   
e|--0-------0-----1-----1-------0-----0--3--1--0--1----0-------0-----1-----1--|
B|-------3--1-----1-----1-------1-----1--3------------------3--1-----1-----1--|
G|-------2--2-----2-----2-------0-----0-----0-----0---------2--2-----2-----2--|
D|-------2--2-----3-----3-------2-----2-----0-----0---------2--2-----3-----3--|
A|--0------------------------3-------------------------0----------------------|
E|-------------1-------------------------3------------------------1-----------|

e|--0--0-----------------------0----0-----0-----------|
B|-----------3p-1-3-----1--3---1----1--------3--1--3--|
G|--0--0-----------------------2----2-----------------|
D|--2--2-----------------------3----3--3--------------|
A|--3--3----------------------------------------------|
E|----------------3--3---------1----------1-----------|

e|-----------0----0--0--------3--3--3-----4--0-----0--|
B|-----0-----1----------------1--1--1-----------3-----|
G|-----0----------0--0--------0--0--0-----------------|
D|-----0----------0--0--2-----2--2--------------------|
A|----------------------------3--------3--------------|
E|--3--------3----------------------------0--------0--|

e|----------0-------------------------------------------|
B|--3p-1----0-----3--3--1--3-------1-----1-----1--------|
G|-------2-----2--2--2--2--2-------2-----2-----2-----2--|
D|----------------3--3--3--3-------3-----3-----3-----3--|
A|--0-------0-------------------------------------------|
E|----------------1-------------1--------1--------------|

e|---------------------0-----|
B|--0---3--3--3--3--1--1-----|
G|--1---------------------2--|
D|--2------------------------|
A|--2------------------------|
E|--0------------------------|


[Bridge/Interlude]

e|--0--(0)--0--(0)--0--(0)--0--(0)--|--------0--------(0)--0--(0)--|
B|--1--(1)--1--(1)--1--(1)--1--(1)--|--3--3-----3--1--(1)--1--(1)--|
G|--2--(2)--2--(2)--2--(2)--2--(2)--|--2--2--2--2--2--(2)--2--(2)--|
D|--3-------3-------3-------3-------|--3--3--3--3--3-------3-------|
A|----------------------------------|------------------------------|
E|----------------------------------|------------------------------|

e|---0--(0)--0--(0)--0--3----0-------------0-----------(0)---------|
B|---1--(1)--1--(1)--1--1----1-------3--1--------3--1--(1)---------|
G|---2--(2)--2--(2)--2--2----2-------2--2-----2--2--2--(2)---------|
D|---2-------2-------2--2----2----------------2--2--2--(2)---------|
A|-----------------------------------0--------0-------------0------|
E|-----------------------------------------------------------------|

e|-----(0)-----(0)-----(0)-----(0)-----------------0---0-----------|
B|--1--(1)--1--(1)--1--(1)--1--(1)-----3--3-----3-----(1)--1--(1)--|
G|--2--(2)--2--(2)--2--(2)--2--(2)-----2--2--2--2--2--(2)--2--(2)--|
D|--3-------3-------3-------3----------3--3--3--3--3-------3-------|
A|-----------------------------------------------------------------|
E|--1-----------1---1-----------1------1--------1--1-----------1---|
                                           ^                       
|--0--0--(0)-(0)-(0)-(0)-0--0--(0)--(0)----3--0----0-------0----0-|
|--0--0--(0)-(0)-(0)-(0)-0--0--(0)--(0)----0--0----0--3----1------|
|--1--1--(1)-(1)-(1)-(1)-1--1--(1)--(1)----1--1----1--1----0------|
|--2--2--(2)-(2)-(2)-(2)-2--2--(2)--(2)----2--2-------2----2------|
|------------------------------------------2----------2-----------|
|------------------------------------------0----------------------|

e|-------------------------------------------------------|
B|---1--------1--------1--------1--------1--------1------|
G|------2--------2--------2--------2--------2------------|
D|---------2--------2--------2--------2--------2---------|
A|-------------------------------------------------------|
E|-------------------------------------------------------|

e|---------------------------------3--3--0--3--0--3s--5--|
B|--0--------0--------0--------0-------------------------|
G|-----0--------0--------0-----1-------------------------|
D|--------2--------2-----------2-------------------------|
A|-----------------------------2-------------------------|
E|--0----------------------------------------------------|


[Outro]
  
e|--------------------------|
B|--1--------1--------1-----|
G|-----2--------2--------2--|
D|--------2--------2--------|
A|--------------------------|
E|--------------------------|
  
e|-------------------------------------------------------|
B|-----3-----3--1h-3--1----0----0--(0)-----0-----(0)-----|
G|-----2--2--2--2-------------------0---------0--(0)-----|
D|--2--2-----2---------------2-----(0)--2---------2---2--|
A|-------------------------------------------------------|
E|-------------------------------------------------------|
  
e|-----------------------------0------3s-5------------------|
B|-----3--(3)-3----3----1--(1)-0----------------------------|
G|--------(0)--------------(0)---------------------2-----2--|
D|--------(0)--------------(0)---------------------2-----2--|
A|---------------------------------0----------0----0-----0--|
E|--0--------------0----------------------------------------|
   
e|----------------------------------------------------------|
B|-----3-----3--1h-3--1----0-------0--(0)-----0-----(0)-----|
G|-----2-----2--2----------------------0---------0--(0)-----|
D|-----2-----2--2---------------2-----(0)--2---------2---2--|
A|--0-------------------------------------------------------|
E|----------------------------------------------------------|

e|------------------------------|
B|-----3----3----1h-3--1--------|
G|-----2----2----2----------2-0-|
D|-----2----2----2--------------|
A|--2---------------------------|
E|------------------------------|
 

************************************

(n) ghost note
/   slide up
\   slide down
h   hammer-on
p   pull-off 

************************************
Suggest correction
comments
print report bad tab
1 comment total.
0 reply
danrobben 80 Jan 28, 2014 08:16 AM

Dont understand tabs..

guest
You may want to rate the tab now too:
select rating
Wanna post a correction for this tab? Suggest correction