Oops, an error
Loading. Please wait.

Hotel California Tab

version 1
version 1

Whole song

Interactive

65,753 views 315 this week
1 commentread comment
1 2 3 4 5
excellent!
x 7
add to favorites
launch autoscroll
font size
0
reset
how to read this tab
guitar tuner
Autoscroll
slow
fast
+/-
esc
set tempo
stop
Help us to improve Ultimate-Guitar.com Take our survey!
×
Author
Difficulty
intermediate
Title: Hotel California

Artist: Sungha Jung

Arranged by: Tomi Paldanius

Tabbed by: Ryan R. Gonzales

Location: Rosario, Batangas - Philippines

Tuning: e B G D A E (Standard Tuning)

[Intro]

     TP                       TP                     TP
     Q      Q    Q    Q       Q    Q    Q    Q       Q    Q    Q    Q
e||--7---------------------|--7-------------------|--7-------------------|
B||------------------------|----------------------|----------------------|
G||-------------------7----|----------------------|-------7--------------|
D||--------------9---------|--9-------------------|--9---------9---------|
A||---------9--------------|-------9---------9----|-----------------9----|
E||--7---------------------|------------7---------|----------------------|

    TP                     TP                     TP
    Q    Q    Q    Q       Q    Q    Q    Q       Q    Q    Q    Q
e|--5-------------------|--5-------------------|--5-------------------|
B|----------------------|----------------------|----------------------|
G|-----------------6----|----------------------|-------6--------------|
D|------------7---------|--7-------------------|--7---------7---------|
A|-------7--------------|-------7---------7----|-----------------7----|
E|--5-------------------|------------5---------|----------------------|

    TP                     TP                     TP
    Q    Q    Q    Q       Q    Q    Q    Q       Q    Q    Q    Q
e|--3-------------------|--3-------------------|--3-------------------|
B|----------------------|----------------------|----------------------|
G|-----------------4----|----------------------|-------4--------------|
D|------------5---------|--5-------------------|--5---------5---------|
A|-------5--------------|-------5---------5----|-----------------5----|
E|--3-------------------|------------3---------|----------------------|

    TP                     TP
    Q    Q    Q    Q       Q    Q    H           W
e|--2-------------------|--2------------------|-------------------|
B|----------------------|---------------------|-------------------|
G|-----------------3----|---------------------|-------------------|
D|------------2---------|--2------------------|-------------------|
A|-------4--------------|-------4-------------|-------------------|
E|--2-------------------|------------2--------|--L----------------|

    TP                     TP                     TP
    Q    Q    Q    Q       Q    Q    Q    Q       Q    Q    Q    Q
e|--0-------------------|--0-------------------|--0-------------------|
B|-----------------3----|----------------------|-------3--------------|
G|------------4---------|--4-------------------|--4---------4---------|
D|-------4--------------|-------4---------4----|-----------------4----|
A|--2-------------------|------------2---------|----------------------|
E|----------------------|----------------------|----------------------|

    TP                     TP                     TP
    Q    Q    Q    Q       Q    Q    Q    Q       Q    Q    Q    Q
e|--0-------------------|--0-------------------|--0-------------------|
B|-----------------0----|----------------------|-------0--------------|
G|------------6---------|--6-------------------|--6---------6---------|
D|-------7--------------|-------7---------7----|-----------------7----|
A|--0-------------------|------------0---------|----------------------|
E|----------------------|----------------------|----------------------|

    TP                     TP                     TP
    Q    Q    Q    Q       Q    Q    Q    Q       Q    Q    Q    Q
e|--0-------------------|--0-------------------|--0-------------------|
B|----------------------|----------------------|----------------------|
G|-----------------4----|----------------------|-------4--------------|
D|------------5---------|--5-------------------|--5---------5---------|
A|-------5--------------|-------5---------5----|-----------------5----|
E|--3-------------------|------------3---------|----------------------|

    TP                     TP
    Q    Q    Q    Q       Q    Q    H           W
e|--2-------------------|--2------------------|-------------------|
B|----------------------|---------------------|-------------------|
G|-----------------3----|---------------------|-------------------|
D|------------2---------|--2------------------|-------------------|
A|-------4--------------|-------4-------------|-------------------|
E|--2-------------------|------------2--------|--L----------------|

    Q    E  E  E  E  E  E     H.           Q       Q    E  E  E  E  E  E
e|-------------------------|--0-----------------|-------------------------|
B|----------------3--------|--------------------|----------------2--------|
G|----------4-----------4--|--------------------|----------3-----------3--|
D|-------4-----------4-----|--------------------|-------4-----------4-----|
A|--2----------2-----------|---------------0----|--2----------2-----------|
E|-------------------------|--------------------|-------------------------|

    H.           Q       Q    E  E  E  E  E  E     H.           Q
e|--0-----------------|-------------------------|--0-----------------|
B|--------------------|----------------5--------|--------------------|
G|--------------------|----------6-----------6--|--------------------|
D|--------------------|-------7-----------7-----|--------------------|
A|---------------0----|-------------------------|--------------------|
E|--------------------|--7----------7-----------|---------------0----|

    Q    E  E  E  E  E  E     H.           Q       Q    E  E  E  E  E  E
e|-------------------------|--7-----------------|-------------------------|
B|----------------7--------|--------------------|----------------3--------|
G|----------7-----------7--|--------------------|----------0-----------0--|
D|-------6-----------6-----|--------------------|-------4-----------4-----|
A|-------------------------|--------------------|-------------------------|
E|--7----------7-----------|---------------0----|--7----------7-----------|

    H.           Q       Q    E  E  E  E  E  E     H.           Q
e|--0-----------------|-------------------------|--0-----------------|
B|--------------------|----------------5--------|--------------------|
G|--------------------|----------7-----------7--|--------------------|
D|--------------------|-------7-----------7-----|--------------------|
A|--------------------|-------------------------|---------------0----|
E|---------------0----|--7----------7-----------|--------------------|

    Q    E  E  E  E  E  E     H.           E   E     Q    E  E   E  E  E  E
e|-------------------------|--0-------------------|--------------------------|
B|----------------0--------|----------------------|-----------------2--------|
G|----------0-----------0--|----------------------|----------2h--3--------3--|
D|-------4-----------4-----|----------------------|-------2------------2-----|
A|-------------------------|----------------------|--------------------------|
E|--7----------7-----------|---------------0h--1--|--2-----------2-----------|

    W                   Q.     E  E  E  E  E     H        H
e|--2----------------|------------------------|--------------------|
B|-------------------|---------------3--------|--------------------|
G|-------------------|---------4-----------4--|--------------------|
D|-------------------|--0---------------4-----|--2--------4--------|
A|-------------------|--2---------2-----------|--------------------|
E|--2----------------|------------------------|--------------------|

    Q    E  E  E  E  Q       W                    Q    E  E  E  E  E  E
e|------------------------|--------------------|-------------------------|
B|----------0-------------|--------------------|----------------2--------|
G|------------------------|--------------------|----------2-----------2--|
D|--2-------------2-------|--------------------|-------2-----------2-----|
A|-------4-----------5----|--4~----------------|--4----------------------|
E|--2----------2----------|--------------------|--5----------5-----------|

    H         H           Q.     E   E  E  E  E     W
e|---------------------|-------------------------|--0----------------|
B|---------------------|----------------0--------|-------------------|
G|---------------------|---------0h--1-----1-----|-------------------|
D|------------2--------|----------------------2--|-------------------|
A|--5~-----------------|--2----------------------|-------------------|
E|---------------------|--0----------------------|-------------------|

    Q.     E  E  E  E  E     E  S S E  S S E  S S E  S S
e|------------------------|------------------------------|
B|---------------0--------|-----0------0------0------0---|
G|---------0-----------0--|-------0------0------0------0-|
D|------------------0-----|--4------2------0-------------|
A|--2---------------------|-----------------------4------|
E|--3---------3-----------|------------------------------|

    Q    E  E  E   E  E  E     W                   H         Q    E  E
e|-------------0h--2--------|--2----------------|-----------------------|
B|----------3---------3-----|-------------------|-----------/5----5-----|
G|-------2---------------2--|-------------------|--------------------0--|
D|--0----------0------------|--0----------------|-----------/5----5-----|
A|--------------------------|-------------------|-----------------------|
E|--------------------------|-------------------|--0--------------------|

    E  E  E  E  E  E  E   E     Q    E  E   E  E  E  E     W
e|---------------------------|--------------------------|--2----------------|
B|-----3--------2------------|-----------------2--------|-------------------|
G|--------0--------0---------|----------2h--3--------3--|-------------------|
D|--4--------2---------------|-------2------------2-----|-------------------|
A|---------------------------|--------------------------|-------------------|
E|--------------------0h--1--|--2-----------2-----------|--2----------------|


[Verse]
           ^                   ^                         ^
    Q      E  E  Q    E  E     Q    H.              Q    E  E  Q    E  E
e|---------2--2--2----0-----|--0----2------------|-------2--2--2----------|
B|---------3-------------3--|--3-----------------|-------2----------5--5--|
G|---------4----------------|--4-----------------|-------3----------------|
D|---------4----------------|--------------------|------------------------|
A|--2------------2----------|--2-----------------|------------------------|
E|--------------------------|--------------------|--2----------2----------|

                             ^                   ^
    W                   Q    E  E  Q    E  E     Q    H.
e|-------------------|-------2--2--2----0-----|--0----2------------|
B|--5----------------|-------2-------------3--|--2-----------------|
G|--3----------------|-------2----------------|--2-----------------|
D|-------------------|------------------------|--------------------|
A|-------------------|--0----------0----------|--0-----------------|
E|--2----------------|------------------------|--------------------|

             ^                                                ^
    H        E   E  E  E     H.           E   E     Q    Q    E   E   E  E
e|-----------0h--2--0-----|----------------------|------------0h--2p--0-----|
B|-----------0---------3--|--3-------------------|------------3----------3--|
G|-----------1------------|--1-------------------|------------0-------------|
D|------------------------|----------------------|-------0------------------|
A|------------------------|----------------------|--------------------------|
E|--0---------------------|--0------------0h--2--|--3---------3-------------|

    ^                             ^
    Q    E   H        E      Q    E  E  Q     E  E     H        H
e|-------0h--2--------L~--|-------2--2--2p----0-----|---------------------|
B|--3---------------------|-------3-----3--------3--|--3--------L~--------|
G|--0---------------------|-------2-----------------|--2--------L~--------|
D|------------------------|--0----------0-----------|--0------------------|
A|------------------------|-------------------------|---------------------|
E|--3---------------------|-------------------------|---------------------|

                                                                     ^
    Q     Q    E  E  E  E     E  E  E  E  E   E  E  E     Q    E  E  Q    E  E
e|-------------------------|---------------------------|-------------2----------|
B|-------/5----5--5--5--3--|--5--5--5--3--5s--7--------|-------------2----5--5--|
G|-------------------------|---------------------------|----------3--3----------|
D|-------/5----5--5--5--0--|--5--5--5--0--5s--7--------|-------2----------------|
A|-------------------------|---------------------------|------------------------|
E|--0----------------------|---------------------0--1--|--2----------2----------|

    H.           E  E     Q     E   E  Q     E   E     Q     Q     E  E   E   E
e|---------------------|--------2---2--2-----0------|--0-----2-------------------|
B|--5------------5--0--|--------3------------3---3--|--------3--------3--(3)-----|
G|--3------------3-----|--------4------------4------|--------4-----------(4)--0--|
D|---------------x-----|-------(4)----------(4)-----|-------(4)----------(4)-----|
A|---------------------|--2-----x------2-----x------|--2-----x-----2------x------|
E|--2------------------|----------------------------|----------------------------|

    Q     E   E  Q     E   E     Q     E   E  E  E   E   E
e|------------2--2------------|-----------------------------|
B|-------(x)----------(x)--5--|--5----(x)--------5--(x)-----|
G|--------3------------3------|--3----(3)--3--------(3)--0--|
D|-------(2)----------(2)-----|-------(2)-----------(2)-----|
A|-------(4)----------(4)-----|-------(4)-----------(4)-----|
E|--2-----x------2-----x------|--2-----x------2------x------|

    Q     E   E  Q      E   E     Q      Q     E  E   E   E
e|--------2---2--2p-----0------|--0----0g2-------------------|
B|--------2------------(2)--3--|---------2--------2--(2)-----|
G|--------2------------(2)-----|---------2-----------(2)--0--|
D|-------(0)-----------(0)-----|--------(0)----------(0)-----|
A|--0-----x------0------x------|--0------x-----0------x------|
E|-----------------------------|-----------------------------|

    Q     E   E  Q     E   E     Q     E   E  E  E   E   S  S
e|--------2---2--2-----0------|-------------------------------|
B|--------0------------0---3--|--3----(3)--------3---3--------|
G|--------1------------1------|-------(1)--1---------1--------|
D|-------(0)----------(0)-----|-------(0)------------0--------|
A|----------------------------|-------(2)-----------(2)-------|
E|--0-----x------0-----x------|--0-----x------0------x---0h-2-|

                ^
    Q     Q     E   E   E   E     Q      Q     E  E   E   E
e|--------------0h--2----------|-------0g2--------2----------|
B|-------(3)----3------(3)--3--|--3------3--------3--(3)-----|
G|--------0-----0-------0------|---------0--------0--(0)--0--|
D|--------0-------------0------|--------(0)----------(0)-----|
A|-----------------------------|-----------------------------|
E|--3-----x-----3-------x------|--3------x-----3------x------|

    Q     E   E  Q      E   E     Q     E   E  E  E   E   E
e|-------(2)--2--2p-----0------|--------0--------------------|
B|--------3------------(3)--3--|--3-----3---------3--(3)-----|
G|--------2------------(2)-----|--2----(2)--2--------(2)--0--|
D|--0-----x------0------x------|--0-----x------0------x------|
A|-----------------------------|-----------------------------|
E|-----------------------------|-----------------------------|

    Q     E  E  E  E  E  E     E  E  E  E  E   E   E   E
e|--------------------------|-----------------------------|
B|-------/5--5--5--5--5--3--|--5--5--5--3--5s--7--(0)-----|
G|--------0--0--0--0--0--0--|--0--0--0--0--0---0--(0)-----|
D|-------/5--5--5--5--5--0--|--5--5--5--0--5s--7--(0)-----|
A|--------------------------|-----------------------------|
E|--0-----x-----0-----x-----|--0-----x-----0-------x---1--|

    Q     E   E  E.  E.  S S    Q     E    E   E   E    S  S S S
e|--------2------2---5---2---|--2-----2----2-------2-------------|
B|--------2----------------5-|--------2----2-------2----2--0-----|
G|--------3---3--------------|--------3---(3)-----(3)---3--0-0---|
D|-------(2)-----------------|-------(2)---------------(2)-0-0-0-|
A|---------------------------|-----------------------------0-0-0-|
E|--2-----x------2-----------|--2-----x--------2--------x--------|


[Chorus]

    Q        E   E  E  E   E   E     E  E  E  E   S    E.    E   E
e|-----------3---3-----3-------3--|-----3---------3s---5---------3--|
B|-----------3---3-----3---3---3--|-----3--3-----(3)s-(5)----3------|
G|-----------0-------------0------|--------0--0--------------0------|
D|----------(0)-----------(0)-----|-------------------------(0)-----|
A|------------------2-------------|--------------------------x------|
E|--3--------x-------------x------|--3-----x------------------------|

    E  E   E   E  E.   S   E   E     E   E   E   E  E.   S   E   E
e|-----2--------------------------|------------------------------2--|
B|-----3--(3)-------------(3)-----|---------(3)-------------(3)-----|
G|--------(2)-----0h---2p-(0)-----|--2p--0--(0)-----0h---2p-(0)-----|
D|--0------x---0-----------x---4--|----------x---4-----------x------|
A|--------------------------------|---------------------------------|
E|--------------------------------|---------------------------------|

    Q     E   E  E  E   E   E     Q     E   E  E  E   E   E
e|--2-------------------2---2--|--2--------------------------|
B|-------(5)--5--------(2)-----|-------(5)--5---------5---5--|
G|-------(3)--3-----3--(3)-----|-------(3)--------3--(3)-----|
D|-------(2)-----------(2)-----|-------(2)-----------(2)-----|
A|-----------------------------|-----------------------------|
E|--2-----x------2------x------|--2-----x------2------x------|

    Q    E  E  E  E   E   E     E  E   E   E  E   E  E  E
e|-------2--------2--(2)-----|-----2--(2)------------------|
B|--5----3--3--------(3)-----|-----3--(3)------------------|
G|---------------------------|-----------------------------|
D|---------------------------|----------------2h--4--------|
A|--2----x-----4------x---4--|--5------x---5---------x-----|
E|---------------------------|--------------------------3--|

    Q     E   E  E  E   E   E     E  E  E  E   S    E.    E   E
e|--------3---3-----3-------3--|-----3---------3s---5---------3--|
B|--------3---3-----3---3---3--|-----3--3-----(3)s-(5)----3------|
G|--------0-------------0------|--------0--0--------------0------|
D|-------(0)-----------(0)-----|-------------------------(0)-----|
A|---------------2-------------|--------------------------x------|
E|--L-----x-------------x------|--3-----x------------------------|

                                                     NH
    E  E  E  E  E.   S   E   E     E  E   E   S  S   Q     E    E
e|-----2--2-----0h---2p--0------|--5----------5s-7------------------|
B|-----3--3-------------(3)-----|-----7--(0)-------<>7----(0)-------|
G|--------2-------------(2)-----|--------(0)-------<>7----(0)--(0)--|
D|--0-----x--0-----------x---0--|--0------x----------------x--------|
A|------------------------------|-----------------------------------|
E|------------------------------|-----------------------------------|

    Q     E   E  E  E   E    E      Q     E   E  E   E    E   E
e|--2---------0-----2------------|--2-----0---0-----------3---3--|
B|--------0-------------0--------|--------0---------------0------|
G|--------0-------------0---(0)--|--------0---------(0)---0------|
D|-------(0)-----------(0)-------|-------(0)-------------(0)-----|
A|-------------------------------|------------------------x------|
E|--0-----x------0------x--------|--0-----x------0---------------|

    Q     E   E  E   E    E   E     E   E    E   E  E   E   E  E
e|--------2---2------2----2------|------2----2----------2---------|
B|--------2----------2----2------|------2----2----------2---------|
G|--------3---------(3)---3---3--|-----(3)---3------3--(3)-----0--|
D|-------(2)-------------(2)-----|----------(2)-------------------|
A|-------------------------------|--------------------------x-----|
E|--2-----x------2--------x------|--2--------x---2----------------|


[Verse]

    Q       E   E  Q     E   E     Q     Q     E  E   E   E
e|----------2---2--2-----0------|--0-----2-------------------|
B|----------3------------3---3--|--------3--------3--(3)-----|
G|----------4------------4------|--------4-----------(4)--0--|
D|---------(4)----------(4)-----|-------(4)----------(4)-----|
A|--2-------x------2-----x------|--2-----x-----2------x------|
E|------------------------------|----------------------------|

    Q     E   E  E  E   E   E     E  E   E   E  E  E   E   E
e|--------2------3--2----------|--3--2------------------------|
B|--------2---------2---x------|---------x---5-----2---x------|
G|-------(3)--3--------(3)--3--|--------(3)-----------(3)--0--|
D|-------(2)-----------(2)-----|--------(2)-----------(2)-----|
A|-------(4)-----------(4)-----|--------(4)-----------(4)-----|
E|--2-----x------2------x------|--2------x------2------x------|

    Q     Q     Q     E   E     E  E   E   E  S  E.   E   E
e|--------0-----------0------|--0--0----------0h-2-----------|
B|--------2-----------2------|-----2--(2)--3---------(2)--0--|
G|--------2-----------2---2--|--------(2)------------(2)-----|
D|-------(0)---------(0)-----|--------(0)------------(0)-----|
A|--0-----x-----0-----x------|--0------x------0-------x------|
E|---------------------------|-------------------------------|

    Q     E   E  Q     E   E     Q     E   E  E  E   E   S  S
e|--------2---2--2-----0------|-------------------------------|
B|--------0------------0---3--|--3----(3)--------3---3--------|
G|--------1------------1------|-------(1)--1---------1--------|
D|-------(0)----------(0)-----|-------(0)------------0--------|
A|----------------------------|-------(2)-----------(2)-------|
E|--0-----x------0-----x------|--0-----x------0------x---0h-2-|

                ^
    Q     Q     E   E   E   E     Q      Q     E  E   E   E
e|--------------0h--2----------|-------0g2--------2----------|
B|-------(3)----3------(3)--3--|--3------3--------3--(3)-----|
G|--------0-----0-------0------|---------0--------0--(0)--0--|
D|--------0-------------0------|--------(0)----------(0)-----|
A|-----------------------------|-----------------------------|
E|--3-----x-----3-------x------|--3------x-----3------x------|

    Q     E   E  Q      E   E     Q     E   E  E  E   E   E
e|-------(2)--2--2p-----0------|--------0--------------------|
B|--------3------------(3)--3--|--3-----3---------3--(3)-----|
G|--------2------------(2)-----|--2----(2)--2--------(2)--0--|
D|--0-----x------0------x------|--0-----x------0------x------|
A|-----------------------------|-----------------------------|
E|-----------------------------|-----------------------------|

    Q     Q    E  E  E  E     E  E  E  E  E   E   E   E
e|-------------------------|-----------------------------|
B|-------/5----5--5--5--3--|--5--5--5--3--5s--7--(0)-----|
G|--------0----0--0--0--0--|--0--0--0--0--0---0--(0)-----|
D|-------/5----5--5--5--0--|--5--5--5--0--5s--7--(0)-----|
A|-------------------------|-----------------------------|
E|--0-----x----0-----x-----|--0-----x-----0-------x---1--|

    Q     E   E  E.  E.  S S    Q     E    E   E   E    S  S S S
e|--------2------2---5---2---|--2-----2----2-------2-------------|
B|--------2----------------5-|--------2----2-------2----2--0-----|
G|--------3---3--------------|--------3---(3)-----(3)---3--0-0---|
D|-------(2)-----------------|-------(2)---------------(2)-0-0-0-|
A|---------------------------|-----------------------------0-0-0-|
E|--2-----x------2-----------|--2-----x--------2--------x--------|


[Chorus]

    Q        E   E  E  E   E   E     E  E  E  E   S    E.    E   E
e|-----------3---3-----3-------3--|-----3---------3s---5---------3--|
B|-----------3---3-----3---3---3--|-----3--3-----(3)s-(5)----3------|
G|-----------0-------------0------|--------0--0--------------0------|
D|----------(0)-----------(0)-----|-------------------------(0)-----|
A|------------------2-------------|--------------------------x------|
E|--3--------x-------------x------|--3-----x------------------------|

    E  E   E   E  E.   S   E   E     E   E   E   E  E.   S   E   E
e|-----2--------------------------|------------------------------2--|
B|-----3--(3)-------------(3)-----|---------(3)-------------(3)-----|
G|--------(2)-----0h---2p-(0)-----|--2p--0--(0)-----0h---2p-(0)-----|
D|--0------x---0-----------x---4--|----------x---4-----------x------|
A|--------------------------------|---------------------------------|
E|--------------------------------|---------------------------------|

    Q     E   E  E  E   E   E     Q     E   E  E  E   E   E
e|--2-------------------2---2--|--2--------------------------|
B|-------(5)--5--------(2)-----|-------(5)--5---------5---5--|
G|-------(3)--3-----3--(3)-----|-------(3)--------3--(3)-----|
D|-------(2)-----------(2)-----|-------(2)-----------(2)-----|
A|-----------------------------|-----------------------------|
E|--2-----x------2------x------|--2-----x------2------x------|

    Q    E  E  E  E   E   E     E  E   E   E  E   E  E  E
e|-------2--------2--(2)-----|-----2--(2)------------------|
B|--5----3--3--------(3)-----|-----3--(3)------------------|
G|---------------------------|-----------------------------|
D|---------------------------|----------------2h--4--------|
A|--2----x-----4------x---4--|--5------x---5---------x-----|
E|---------------------------|--------------------------3--|

    Q     E   E  E  E   E   E     E  E  E  E   S    E.    E   E
e|--------3---3-----3-------3--|-----3---------3s---5---------3--|
B|--------3---3-----3---3---3--|-----3--3-----(3)s-(5)----3------|
G|--------0-------------0------|--------0--0--------------0------|
D|-------(0)-----------(0)-----|-------------------------(0)-----|
A|---------------2-------------|--------------------------x------|
E|--L-----x-------------x------|--3-----x------------------------|

                                                     NH
    E  E  E  E  E.   S   E   E     E  E   E   S  S   Q     E    E
e|-----2--2-----0h---2p--0------|--5----------5s-7------------------|
B|-----3--3-------------(3)-----|-----7--(0)-------<>7----(0)-------|
G|--------2-------------(2)-----|--------(0)-------<>7----(0)--(0)--|
D|--0-----x--0-----------x---0--|--0------x----------------x--------|
A|------------------------------|-----------------------------------|
E|------------------------------|-----------------------------------|

    Q     E   E  E  E   E    E      Q     E   E  E   E    E   E
e|--2---------0-----2------------|--2-----0---0-----------3---3--|
B|--------0-------------0--------|--------0---------------0------|
G|--------0-------------0---(0)--|--------0---------(0)---0------|
D|-------(0)-----------(0)-------|-------(0)-------------(0)-----|
A|-------------------------------|------------------------x------|
E|--0-----x------0------x--------|--0-----x------0---------------|


                                  [Interlude]

    Q     E   E  E   E    E   E     E   E    E   E  E   E   E  S          S
e|--------2---2------2----2------|------2----2----------2-------------------|
B|--------2----------2----2------|------2----2----------2------5s---------7-|
G|--------3---------(3)---3---3--|-----(3)---3------3--(3)------------------|
D|-------(2)-------------(2)-----|----------(2)-----------------------------|
A|-------------------------------|--------------------------x---------------|
E|--2-----x------2--------x------|--2--------x---2--------------------------|

     Q     E    E    E  E   E   E     E   E    E    E   E  E   E   E
e|--10------------------7----------|----------------------------------|
B|--------(0)-------10-----(7)--7--|----------(0)---------------------|
G|--------(0)--(0)---------(7)--7--|-----(0)--(0)--(0)--4--7--(0)-----|
D|--------(0)--------------(7)-----|----------(0)-------------(0)-----|
A|---------------------------------|---------------------------x---0--|
E|---7-----x---------7------x------|--7--------x----------------------|

    Q     E  E  E  E  E   E      E  E  E   E   E  E  E  E
e|----------------------------|----------------------------|
B|-----------------7----------|--7--7----------7--7--------|
G|--7--------------9----------|--9--9----------9--9--------|
D|-------11--0-----8----------|--8--8----------8--8--------|
A|--0-----x-----9--9--x--(9)--|--9--9--x--(9)--9--9--x--0--|
E|----------------------------|----------------------------|

    E   E  E  E  E  E  E  E     E   E  E  E  E  E  E  E
e|---------------------------|---------------------------|
B|---------------------------|---------------------------|
G|--7h--9-----7-----6--------|--7h--9-----7-----6--7-----|
D|---------------9-----7--0--|---------------9--------0--|
A|--0------x-----0-----x-----|--0------x-----0-----x-----|
E|---------------------------|---------------------------|

    Q     E    E    E   E   E   E     Q      E     E   E  E     E    E
e|-------12------------------------|-------------------------------------|
B|--------0--------12--11--10---9--|--L~----(9)~---L------9h--(12)-------|
G|--------0---(0)-----------0------|---------0----(0)-----------0---(0)--|
D|-------(0)---------------(0)-----|--------(0)----------------(0)-------|
A|---------------------------------|-------------------------------------|
E|--0-----x---------0-------x------|--0------x---------0--------x--------|

     S   E.    E    S   S E   E    E     E      E   E    E    E  Q      E    E
e|--10h-12---(12)--10h-12----10--(10)~-------|--7--10--(10)----------------------|
B|------------(0)-----------------(0)---(0)--|-----------0---10--8~----(8)-------|
G|---0---------x----------0--------x---------|--0--------x-------0------x---(0)--|
D|-------------------------------------------|-----------------------------------|
A|-------------------------------------------|-----------------------------------|
E|-------------------------------------------|-----------------------------------|

     Q     E    E   E  E   E   E     E  E   E   E  E  E   E   E
e|--------------------------------|------------------------------|
B|--/7----(0)-------7--5--(0)-----|--------(0)-----7--7--(7)-----|
G|---------0---(0)---------0------|--7--6---0------7--7--(7)-----|
D|---0-----x--------0------x---0--|--0------x---0--0------0------|
A|--------------------------------|-----------------------x------|
E|--------------------------------|---------------------------0--|

    E   E   E   E  E  E   E    E      E   E   E   E  E  E   E    E
e|---------------------------------|---------------------------------|
B|-----------------8--7------------|-----------------8--7------------|
G|--7h--9---0-------------9---(0)--|--7h--9---0-------------9---(0)--|
D|----------0------------(0)-------|----------0------------(0)-------|
A|---------(0)-----------(0)-------|---------(0)-----------(0)-------|
E|--0-------x---0--0------x--------|--0-------x---0--0------x--------|

    Q    E   E   E  E  E   E      E  E  E   E   E  E  E  E
e|-------2---------------------|----------------9--9--------|
B|-------2-------7--7----------|--7--7----------7--7--------|
G|-------3--(0)--9--9----------|--9--9----------9--9--------|
D|-------2--(0)--8--8----------|--8--8----------------------|
A|-------x-------9--9--x--(9)--|--9--9--x--(9)--9--9--x--0--|
E|--2--------------------------|----------------------------|

    S   S  E  E  S   S  E  E  S   S  E     E  S   S  E  E  E   E   E   E
e|------------7------------7------------|--7------------7-----------------|
B|------------7------------7------------|--7------------7-----------------|
G|--9s-11-11--x--9s-11-11-----9s-11-11--|-----9s-11-11-----9p--7---9------|
D|--------------------------------------|-------------------------(7)--0--|
A|--------------------------------------|-------------------------(7)-----|
E|--7---------x--7------------7---------|-----7------------7-------x------|

    Q    E  E  E  E  E  E     E   E    E   E  E  E   E   E
e|-------------------------|------2--------2-----2----------|
B|-------7--------7--------|------2---(2)--2-----2--(2)-----|
G|-------9--x-----9--------|------3---(3)-----------(3)-----|
D|-------8--------8-----0--|-----(4)--(4)-----------(4)-----|
A|--9----x-----9-----x-----|-----------------------------0--|
E|-------------------------|--2--------x------2------x------|

      Q     E   E  E  E   E   E     E   E   Q     E  E   E   E
e|-------------------------------|----------------7-------------|
B|--/10----10---------7----------|---------10b-------8--10------|
G|---------(0)-----9------7------|---------(0)----------(0)-----|
D|---------(0)-----------(0)--0--|--9--12--(0)----------(0)--0--|
A|----0-----x---0--0------x------|--0-------x-----0------x------|
E|-------------------------------|------------------------------|

    Q     E    E    E   E   E   E     Q      E     E   E  E      E    E
e|-------12------------------------|--------------------------------------|
B|--------0--------12--11--10---9--|--L~----(9)~----------9h~--(12)-------|
G|--------0---(0)-----------0------|---------0----(0)------------0---(0)--|
D|-------(0)---------------(0)-----|--------(0)-----------------(0)-------|
A|---------------------------------|--------------------------------------|
E|--0-----x---------0-------x------|--0------x---------0---------x--------|

     S   E.    E    S   S E   E    E     E       Q     E    E    E   E   E   E
e|--10h-12---(12)--10h-12----10--(10)~-------|--14----17--------14--------------|
B|------------(0)-----------------(0)---(0)--|--------(0)--(0)------17--(0)-----|
G|---0---------x----------0--------x---------|---0-----x---------0-------x---0--|
D|-------------------------------------------|----------------------------------|
A|-------------------------------------------|----------------------------------|
E|-------------------------------------------|----------------------------------|

     E   E   E    E   E   E   E    E      Q      E    E   E   E   E    E
e|--14--15--16---17--19----------------|-----------------------------------|
B|----------(0)----------19--17---15~--|--L----(15)--15~--L--15--(0)-------|
G|----------(0)--------------(0)-------|---------0---------------(0)--(0)--|
D|---0-------x--------0-------x--------|--0------x--------0-------x--------|
A|-------------------------------------|-----------------------------------|
E|-------------------------------------|-----------------------------------|

     Q     E    E  E   E   E    E      Q      E    E  E   E    E    E
e|--14---------17-----17--14-------|--14~-----L---14--------------------|
B|--------(0)-------------(0)--17--|---------(0)---------(0)--(0)-------|
G|--------(0)-------------(0)------|---------(0)---------(0)--(0)--(0)--|
D|--------(0)-------------(0)------|---------(0)--------------(0)-------|
A|---------------------------------|------------------------------------|
E|---0-----x-------0-------x-------|---0------x-------0--------x--------|

    Q     E    E   E   E    E   E     Q     E   E  E  E   E    E
e|--2----------5-------5----2------|--2---------2-----2------------|
B|--2----(2)--(2)-----(2)---2---5--|--2----(2)--2-----2--(0)-------|
G|-------(3)---------------(3)-----|-------(3)-----------(0)--(0)--|
D|-------(2)---------------(2)-----|-------(2)-----------(0)-------|
A|---------------------------------|-------------------------------|
E|--2-----x--------2--------x------|--2-----x------2------x--------|

     Q    E   E    E   E  E   E       E   E  E   E   E   E    E    E
e|--10------------10--10----------|--10--10----------7--------7--------|
B|--------x--------7---7--x-------|---7---7--x----------10--(10)-------|
G|--------x--------7---7--x-------|---7---7--x----------------x--------|
D|--------x---------------x-------|----------x----------------x---(0)--|
A|--------------------------------|------------------------------------|
E|---7----x--(7)---7------x--(7)--|---7------x--(7)--7--------x--------|

    Q    E  E  E  E  E  E     E   E    E   E  E  E   E   E
e|-------------------------|------2--------2-----2----------|
B|-------7--------7--------|------2---(2)--2-----2--(2)-----|
G|-------9--x-----9--------|------3---(3)-----------(3)-----|
D|-------8--------8-----0--|-----(4)--(4)-----------(4)-----|
A|--9----x-----9-----x-----|-----------------------------0--|
E|-------------------------|--2--------x------2------x------|

      E   E     E     E     E     E     E     E
e|--/14--14br--14br--14br--14br--14br--14br--14br--|
B|-------------(0)---------------------(0)---------|
G|-------------(0)---------------------(0)---------|
D|-------------------------------------------------|
A|----0---------x-----------0-----------x----------|
E|-------------------------------------------------|

     E     E     E     E     E   E   E    E      Q     E   E    E   E   E   E
e|--14br--14br--14br--14br--12------12-------|---------------------------------|
B|--------------(0)-------------15--(0)--15--|--12------------/10--------------|
G|--------------(0)-----------------(0)------|--------(0)----------11---9---7--|
D|-------------------------------------------|--------(0)--------------(0)-----|
A|---0-----------x-----------0-------x-------|---------------------------------|
E|-------------------------------------------|---0-----x---0----0-------x------|

    S   E.   E  E  E   E   E    E       E   E    E   E   E  E    E    E
e|-----------0----------------------|--10-------(0)-------------(0)-------|
B|----------10--------10--(0)--(0)--|------10--(10)--8--10--8p--(7)--(0)--|
G|--9s-11---11--------11--(0)-------|---0--------x-------0-------x--------|
D|------------------------(0)-------|-------------------------------------|
A|----------------------------------|-------------------------------------|
E|--0--------x--0--0-------x--------|-------------------------------------|

    E  E   E   E  E    E   E  E      Q     E    E   E  E  E  E
e|-------------------------------|--------10--------------------|
B|--3-----(2)-----2p--(0)--------|--/7----(0)-------7--5--------|
G|-----4--(2)--2-------2p--0-----|--------(0)--(0)--------7-----|
D|--------(0)-----------------4--|---0-----x--------0-----x--0--|
A|--0------x---------------------|------------------------------|
E|-------------------------------|------------------------------|

    E  E  E  E  E  E  E  E     E   E   E   E  E  E   E    E
e|--------------------------|---------------------------------|
B|--------------7--7--------|-----------------8--7------------|
G|--7--6--------7--7--------|--7h--9---0-------------9---(0)--|
D|--0-----x--0--0-----x--0--|----------0------------(0)-------|
A|--------------------------|---------(0)-----------(0)-------|
E|--------------------------|--0-------x---0--0------x--------|

    E  S  S  E   E  E  E   E    E      Q    E   E   E  E   E  E
e|----------------------------------|-------2--------------------|
B|------------------8--7------------|-------2-------x--3p--2-----|
G|-----7h-9--9-------------9---(0)--|-------3--(x)------------3--|
D|-----------0------------(0)-------|-------2--------------------|
A|----------(0)-----------(0)-------|-------x--------------------|
E|--0--------x---0--0------x--------|--2------------2------------|

    Q     E    E   E   E    E    E      E  E  E  E  E  E   E   E
e|--------2----2-------2-------------|--2--------2---------2------|
B|--------2----2-------2----2--------|-----3--3-----3------3---3--|
G|--------3---(3)-----(3)---3---(0)--|--------4--------4---4------|
D|-------(2)---------------(2)-------|--------4-----------(4)-----|
A|-----------------------------------|--2-----x-----2------x------|
E|--2-----x--------2--------x--------|----------------------------|

    E  E  E  E  E  E  E  E     E   E   E   E   E  E   E   E
e|-----2--------2-----------|--------------------------------|
B|--------3--------3--------|--5p--2--(2)--5p--2------2------|
G|--4-----4--4--------4--0--|---------(3)---------3--(3)--3--|
D|--------4-----------4-----|---------(2)------------(2)-----|
A|--2-----x-----2-----x-----|--------------------------------|
E|--------------------------|--2-------x-------2------x------|

    Q     E   E  E  E   E    E      E   E   E   E   E  E   E   E
e|--6-----6---6-----6------------|--------------------------------|
B|--------x------------(0)-------|--5p--2-------5p--2------5p--2--|
G|-------(3)-----------(0)--(0)--|----------2----------2--(2)-----|
D|-------(2)-----------(0)-------|---------(2)------------(2)-----|
A|-------------------------------|--0-------x-------0------x------|
E|--2-----x------2------x--------|--------------------------------|

    E  E    E   E  E   E   E    E      E   E   E   E   E  E   E   E
e|----------------------------------|--------------------------------|
B|-----5p---2------5p--2------------|--3p--0-------3p--0------3p--0--|
G|--2------(2)--2----------2---(0)--|---------(1)---------1--(1)-----|
D|---------(2)------------(2)-------|---------(0)------------(0)-----|
A|--0-------x------0-------x--------|---------(2)------------(2)-----|
E|----------------------------------|--0-------x-------0------x------|

    Q     E   E  E  E   E    E      E   E   E   E   E  E   E   E
e|--4-----4---4-----4--(4)-------|--------------------------------|
B|-------(0)-----------(0)-------|--3p--0-------3p--0------3p--0--|
G|-------(1)-----------(1)--(0)--|---------(0)---------0--(0)-----|
D|-------------------------------|---------(0)------------(0)-----|
A|-------------------------------|---------(2)------------(2)-----|
E|--0-----x------0------x--------|--3-------x-------3------x------|

    E  E    E   E  E   E   E    E      E  E   E   E  E  E   E   E
e|----------------------------------|------------------------------|
B|-----3p---0------3p--0------------|--3----------3----------------|
G|--0------(0)--0---------(0)--(0)--|-----2--(2)-----2-----(2)--2--|
D|---------(0)------------(0)-------|--------(4)--------4--(4)-----|
A|---------(2)------------(2)-------|--5------x------------(5)-----|
E|--3-------x------3-------x--------|----------------5------x------|

    Q     E   E  E  E   E    E      E  E  E  E  E  E  E  E
e|--2-----2---2-----2------------|--------------------------|
B|--3-----3---3-----3--(3)-------|--0--------0--------0-----|
G|--2----(2)-----------(2)-------|-----0--------0--------0--|
D|-------(4)-----------(4)--(0)--|--------2--------2--------|
A|--5-----x-------------x--------|-----------2--------4-----|
E|---------------5---------------|--0-----------------------|

    E  E  E  E  E   E    E    E      E  E   E   E  E  E   E   E
e|--------------------------------|------------------------------|
B|-----0----------------(0)-------|--2----------2---------2------|
G|--------0-----0--(0)--(0)--(0)--|-----3--(3)-----3-----(3)--3--|
D|--2--------2--2-------(0)-------|--------(2)--------2--(2)-----|
A|-----5-----------------x--------|--------(4)-----------(4)-----|
E|--------------------------------|--2------x------2------x------|

    Q     E   E  E  E   E    E      E  E  E  E  E  E   E   E
e|--2-----2---2-----2------------|--2--------2---------2------|
B|--------2---2-----2--(0)-------|-----3--3-----3------3---3--|
G|-------(3)-----------(0)--(0)--|--------4--------4---4------|
D|---------------------(0)-------|--------4-----------(4)-----|
A|-------------------------------|--2-----x-----2------x------|
E|--2-----x------2------x--------|----------------------------|

    E  E  E  E  E  E  E  E     E   E   E   E   E  E   E   E
e|-----2--------2-----------|--------------------------------|
B|--------3--------3--------|--5p--2--(2)--5p--2------2------|
G|--4-----4--4--------4--0--|---------(3)---------3--(3)--3--|
D|--------4-----------4-----|---------(2)------------(2)-----|
A|--2-----x-----2-----x-----|--------------------------------|
E|--------------------------|--2-------x-------2------x------|

    Q     E   E  E  E   E    E      E   E   E   E   E  E   E   E
e|--6-----6---6-----6------------|--------------------------------|
B|--------x------------(0)-------|--5p--2-------5p--2------5p--2--|
G|-------(3)-----------(0)--(0)--|----------2----------2--(2)-----|
D|-------(2)-----------(0)-------|---------(2)------------(2)-----|
A|-------------------------------|--0-------x-------0------x------|
E|--2-----x------2------x--------|--------------------------------|

    E  E    E   E  E   E   E    E      E   E   E   E   E  E   E   E
e|----------------------------------|--------------------------------|
B|-----5p---2------5p--2------------|--3p--0-------3p--0------3p--0--|
G|--2------(2)--2----------2---(0)--|---------(1)---------1--(1)-----|
D|---------(2)------------(2)-------|---------(0)------------(0)-----|
A|--0-------x------0-------x--------|---------(2)------------(2)-----|
E|----------------------------------|--0-------x-------0------x------|

    Q     E   E  E  E   E    E      E   E   E   E   E  E   E   E
e|--4-----4---4-----4--(4)-------|--------------------------------|
B|-------(0)-----------(0)-------|--3p--0-------3p--0------3p--0--|
G|-------(1)-----------(1)--(0)--|---------(0)---------0--(0)-----|
D|-------------------------------|---------(0)------------(0)-----|
A|-------------------------------|---------(2)------------(2)-----|
E|--0-----x------0------x--------|--3-------x-------3------x------|

    E  E    E   E  E   E   E    E      E  E   E   E  E  E   E   E
e|----------------------------------|------------------------------|
B|-----3p---0------3p--0------------|--3----------3----------------|
G|--0------(0)--0---------(0)--(0)--|-----2--(2)-----2-----(2)--2--|
D|---------(0)------------(0)-------|--------(4)--------4--(4)-----|
A|---------(2)------------(2)-------|--5------x------------(5)-----|
E|--3-------x------3-------x--------|----------------5------x------|

    Q     E   E  E  E   E    E      E  E  E  E  E  E  E  E
e|--2-----2---2-----2------------|--------------------------|
B|--3-----3---3-----3--(3)-------|--0--------0--------0-----|
G|--2----(2)-----------(2)-------|-----0--------0--------0--|
D|-------(4)-----------(4)--(0)--|--------2--------2--------|
A|--5-----x-------------x--------|-----------2--------4-----|
E|---------------5---------------|--0-----------------------|

    E  E  E  E  E   E    E    E      E  E   E   E  E  E   E   E
e|--------------------------------|------------------------------|
B|-----0----------------(0)-------|--2----------2---------2------|
G|--------0-----0--(0)--(0)--(0)--|-----3--(3)-----3-----(3)--3--|
D|--2--------2--2-------(0)-------|--------(2)--------2--(2)-----|
A|-----5-----------------x--------|--------(4)-----------(4)-----|
E|--------------------------------|--2------x------2------x------|

                                ^
    Q     E   E  E  E  E  E     H        E  E  E  E     E  E  E  E   E  Q.
e|--2-----2---2-----2--------|--0-----------------0--|--------2---------7------|
B|--------2---2-----2--0--0--|--3--------------3-----|-----3-----3s--5---------|
G|-------(3)-----------0--0--|--4-----------4--------|--4---------------4------|
D|---------------------0-----|--4--------4-----------|-------------------------|
A|---------------------------|--2--------------------|-------------------------|
E|--2-----x------2-----x-----|-----------------------|-------------------------|

    W
e|-------------------||
B|-------------------||
G|-------------------||
D|-------------------||
A|-------------------||
E|--7----------------||


Duration Legend
---------------
W - whole
H - half
Q - quarter
E - 8th


Tablature Legend
----------------

L   - tied note
x   - dead note
g   - grace note
(n) - ghost note
NH  - natural harmonic
h   - hammer on
p   - pull off
b   - bend
br  - bendRelease
s   - legato slide
/   -  slide into from below or out of upwards
~   - vibrato
TP  - tremolo picking
^   - brush up

echo "Hello World!";
Suggest correction
comments
print report bad tab
1 comment total.
0 reply
Karlriggypenas 48 wrote on June 25 2015, 03:49 am

ok na yan kuha naman try mo ung sakin tabs ko men "you belong with me"

guest
You may want to rate the tab now too:
select rating
Wanna post a correction for this tab? Suggest correction