Oops, an error
Loading. Please wait.

Howls Moving Castle tab

version 2
version 2

Whole song

  • Different, improved, harder and better version. th... Show more

Interactive

59,649 views 387 this week
8 commentsread comments
1 2 3 4 5
x 23
add to favorites
×
Save as Personal and add changes to this tab that will be seen only by you. Learn more ›
×
You can save this tab as Personal to edit and correct it or add notes. All changes will be seen only by you. Learn more »
launch autoscroll
font size
0
reset
how to read this tab
guitar tuner
edit
Autoscroll
slow
fast
+/-
esc
set tempo
stop
About this tab version
Different, improved, harder and better version. the other version is little kid Sungha's version, this is 3 years later version. Was this info helpful? Yes No
Howl's Moving Castle

this tab is heavily based on improved/2nd version of Sungha Jung's arrangement with minor changes 
of notes position to make it more comfortable to play
the other version in ultimateguitar is the easier version when Sungha's arrangement when he was a little kid 
you might want to watch the video for more accurate picking, strumming rhythm and finger position
video can be seen here: https://www.youtube.com/watch?v=2Z603ccaj74


Capo 3

0:11 - 0:21

e|-----------------------------------------------------------------------2----------------|
B|---------------------------------------------------------------------0------------------|
G|-4--5--4--5--4--5-----4---4---4------------------------------------2--------------------|
D|--------------------7---7---7----5--7--5--7--5--7--4-------------1----------------------|
A|------------------------------------------------------7--6/3---2------------------------|
E|----------------------------------------------------------------------------------------|

Slow Pace 0:23 - 0:48

e|---------------------------------------------0----0--------------------------------------|
B|--------0---------------------------------0----------5--3--1--3-------------3------------|
G|----------------2-0------0--------------0-------4----5-----------0--------0--------------|
D|----2/5---5-----1-----/4----0-------2/4---------5----4-----------4------4----------------|
A|--2-------------2-----------2------------------------5-----------------------------------|
E|--------5-------0--------0-------0-----------5----------------3-------0------------------|

e|--2-----0-------------0-----------------------------------------------------------------|
B|-----0------3--2--3-------3---2---0-----------0-----------------------------------------|
G|-----0------3-----------2-----2------2--0--2----2---------------------------------------|
D|-------------------------------------0------------2---4---------------------------------|
A|--4-------------------2-------0-----------------------2---------------------------------|
E|------------2------------------------3--------2-----------------------------------------|

0:49 - 1:02

e|----------------------------------------------------------------------------------------|
B|--7h10p8---7---10p8---7-----------------------------------------------------------------|
G|------------------------9-8-5-4--------0-0----0-0----0-0--------------------------------|
D|---------------------------------------2-2----2-2----2-2--------------------------------|
A|--------------------------------------------2-------------------------------------------|
E|-------------------------------------0-------------0------------------------------------|

Fast Pace 1:03 - 1:20

e|-------------------------------12+---------------0------0----------------------------------|
B|---------0------------------------------------0------------5----3--1--3-------3--------3---|
G|-------------5----2-0-------0---------------0---------5----5--------------0---0------0-----|
D|----2/5------5----1-----/4--------------2/4-----------5----4--------------4--------4-------|
A|--2---------------2----------------------------------------5-------------------------------|
E|---------5-5----------------0------2-3-----------5-5------------------3-3---3--------------|

e|--2-----0---------------0------------------------------------------------------------------|
B|-----0--------3--2--3-------3----2-----0-----------0---------------------------------------|
G|-----0----0---3-----------2---2--2--2-----2--0--2----2-----------4-------------------------|
D|------------------------------------------0------------2---4-----4-------------------------|
A|--4---------------------2--------0-------------------------2--2----------------------------|
E|--------------2---------------------------3--------2---------------------------------------|

1:20 - 1:38

e|-------------------------------12+---------------0------0------------------------------------|
B|---------0------------------------------------0------------5--/7--3--1--3-------3--------3---|
G|-------------5----2-0-------0---------------0---------5----5----------------0---0------0-----|
D|----2/5------5----1-----/4--------------2/4-----------5----4----------------4--------4-------|
A|--2---------------2----------------------------------------5---------------------------------|
E|---------5-5----------------0------2-3-----------5-5--------------------3-3---3--------------|

e|--2-----0--------------------0---------------------------------------------------------------|
B|-----0----------3--2--1--2-------3------2--0---0---0--------------------0--------------------|
G|-----0----0--------------------2---2---------3---------2--0--------1--3----------------------|
D|-------------------------------------------------------------4-------------------------------|
A|--4--------------------------2--------0--------------2---------------------------------------|
E|--------------2------------------------------------3---------2-------------------------------|

1:38 - 1:41

e|-------------------------------------------------------------------------------|
B|-----------------------4-------------------------------------------------------|
G|-----------------/4--6---4-----------------------------------------------------|
D|-------1-----------------------------------------------------------------------|
A|--2--4---2---------------------------------------------------------------------|
E|-----------2-------------------------------------------------------------------|

1:41 - 1:50

e|-------------------------------------------------------------------------------|
B|--0--1---0---------------------------1---0----------0--------------------------|
G|-----2------2--0-----0--2--4---------2------2---0h2----------------------------|
D|-----2---0--0-----4----------0-------0---0--0-----------0----------------------|
A|-------------------------------0-2--------------------2-----2------------------|
E|------------------2--3-------3----------------------3-----3--------------------|

1:50 - 2:08

e|------------------------------------------------------------------------------2^---2v--2^------|
B|--0--0h2p0---0---3--2--0------2---------------3-----3--x--3--2--0---2----2----2^---2v--2^------|
G|--0--------3-----2--------3---3---------------2-----2--x--2---------3----3----3^---3v--3^------|
D|--------------------------4------4-----4--x------------x------------4----4----4^---4v--4^------|
A|-----2-----------2----------4----4-----4--x---2---2-------2-------------------4^---4v--4^------|
E|--------------------------2------2--2-----x-------------------------2--2------2^---2v--2^------|


e|----------------------2--3-----7p5p3---------5p3p2------------------------------|
B|--4-----4--x--4--4/5-----------------7p5p3---------5p3p0------------------------|
G|--2-----2--x--2-----------------------------------------------------------------|
D|--4-----4--x--4-----------------------------------------------------------------|
A|--2---2-------2-----------------------------------------------------------------|
E|-------------------------0-----------------0------------------------------------|

e|---------------------0--2----5--3--2--------------------------------------------|
B|--2-----2--2--2--2/3-----------------5--3---------------------------------------|
G|--2-----2--2--1-----------------------------------------------------------------|
D|--2-----2--2--2---------0-------------------------------------------------------|
A|--0---0-------0-----------------------------------------------------------------|
E|--------------------------------------------------------------------------------|

2:08 - 2:19

e|--0-------------0-----------------------2--5--3--2-----0------------------------|
B|----3--2--1--2-----3--2------------2----------------------4---------------------|
G|----------------4--------4--3--4---3-------5--4--2-----0--2---------------------|
D|----------------------------------------------------------4---------------------|
A|----------------4---------------------4----0--0--0--0--0--2---------------------|
E|-------4-----------------2---------2--------------------------------------------|

e|---5h7p5-------------------------------------------------------------------|
B|---------8----8h10p8--7-----5h7p5--4---------------------------------------|
G|---------------------------------------------------------------------------|
D|---------------------------------------------------------------------------|
A|---------------------------------------------------------------------------|
E|---------------------------------------------------------------------------|

2:20 - 2:42

e|-------------------------------12+---------------0------0------------------------------------|
B|---------0------------------------------------0------------5--/7--3--1--3-------3--------3---|
G|-------------5----2-0-------0---------------0---------5----5----------------0---0------0-----|
D|----2/5------5----1-----/4--------------2/4-----------5----4----------------4--------4-------|
A|--2---------------2----------------------------------------5---------------------------------|
E|---------5-5----------------0------2-3-----------5-5--------------------3-3---3--------------|

e|--2-----0--------------------0----------------------------------------------x-x-x-x-x-----------|
B|-----0----------3--2--1--2-------3------2--0---0---0---------------------0--x-x-x-x-x-----------|
G|-----0----0--------------------2---2---------3---------2--0--------1--3-----4-4-4-4-4-----------|
D|-------------------------------------------------------------4--------------4-4-4-4-4-----------|
A|--4--------------------------2--------0--------------2-------------------2--2-2-2-2-2-----------|
E|--------------2------------------------------------3---------2--------------x-x-x-x-x-----------|

e|--x-x-x-x-x---x-x-x-x-x--------------------------------------------------------------|
B|--x-x-x-x-x---x-x-x-x-x--------------------------------------------------------------|
G|--4-4-4-4-4---4-4-4-4-4--------------------------------------------------------------|
D|--4-4-4-4-4---4-4-4-4-4--------------------------------------------------------------|
A|--2-2-2-2-2---2-2-2-2-2--------------------------------------------------------------|
E|--x-x-x-x-x---x-x-x-x-x--------------------------------------------------------------|

2:44 - 3:09

e|--------------------------------------------------------------------------------|
B|--0--1--0--1--0--1--------0-----0-----0-----------------------------------------|
G|--0--2--0--2--0--2-----2--0--2--0--2--0-----0--2--0--2--0--2--------------------|
D|-----------------------4-----4-----4--------2--4--2--4--2--4----4--2--1---------|
A|--------------------------------------------------------------------------------|
E|--------------------------------------------------------------------------------|

e|-----------2----3p2p0-----------------------------------------------------------------|
B|---------0------------4p1p0----------------------------1--3--1--3--1--3---------------|
G|-------2--------------------4p2p0----------------------2--4--2--4--2--4---------------|
D|-----1----------------------------4p2p0-----------------------------------------------|
A|---2------------------------------------3p2p0-----------------------------------------|
E|----------------------------------------------3-2-------------------------------------|

e|--------------------------------------------------------------------------------------|
B|--0--1--0--1--0--1--------------------------------------------------------------------|
G|--1--2--1--2--1--2-----1--2--1--2--1--2--1------------------1-----------------1-------|
D|-----------------------2----------------------3--2--0--2--3-----3--2--0--2--3---------|
A|--------------------------------------------------------------------------------------|
E|--------------------------------------------------------------------------------------|

e|---------------------------------------------------------------------------------|
B|---------------------------------------------------------------------------------|
G|-----------------1---------------------------------------------------------------|
D|---3--2--0--2--3-----------------------------------------------------------------|
A|--------------------2------------------------------------------------------------|
E|------------------------0--------------------------------------------------------|

3:11 - 3:33

e|--------0----0--------------------0--5---5--5--3--1--3------0--3--7---5--3--2--3----------------|
B|------1--------3--1--0--1-------1-------------------------1-------------------------------------|
G|----2-------------------2-----2-----------------------------------------------------------------|
D|--2------------0--------2-----------------------------------------------------------------------|
A|------------------------0----------------------------3-------------------2----------------------|
E|--------1----------------------------1------3---------------------2-----------------------------|

e|--5----3--2--0---0---0--0--------------------------------------------------------------|
B|---------------4----------3------------------------------------------------------------|
G|----------------------------2--4\------------------------------------------------------|
D|----------0-------------0--------------------------------------------------------------|
A|-----------------3-------------2\------------------------------------------------------|
E|--0------------------------------------------------------------------------------------|

e|--------0----0--------------------0--5---5--5--3--1--3------0--3--7---5--3--2--3-------|
B|------1--------3--1--0--1-------1-------------------------1----------------------------|
G|----2-------------------2-----2--------------------------------------------------------|
D|--2------------0--------2--------------------------------------------------------------|
A|------------------------0----------------------------3-------------------2-------------|
E|--------1----------------------------1------3---------------------2--------------------|

e|--5----3--2--0---0-------------------0^------------0------------------------|
B|---------------4-----3--1--0---2/4---0^----------0--------------------------|
G|-------------------------------------1^--------1----------------------------|
D|----------0--------------------------2^------2------------------------------|
A|-----------------3---------2---------2^----2--------------------------------|
E|--0----------------------------------0^--0----------------------------------|

3:34 - 4:02

e|-------------------------------------------------------------------------------|
B|--0--1---0---------------------------1---0----------0--------------------------|
G|-----2------2--0-----0--2--4---------2------2---0h2----------------------------|
D|-----2---0--0-----4----------0-------0---0--0-----------0----------------------|
A|-------------------------------0-2--------------------2-----2------------------|
E|------------------2--3-------3----------------------3-----3--------------------|

e|------------------------------------------------------------------------------2^---2v--2^------|
B|--0--0h2p0---0---3--2--0------2---------------3-----3--x--3--2--0---2----2----2^---2v--2^------|
G|--0--------3-----2--------3---3---------------2-----2--x--2---------3----3----3^---3v--3^------|
D|--------------------------4------4-----4--x------------x------------4----4----4^---4v--4^------|
A|-----2-----------2----------4----4-----4--x---2---2-------2-------------------4^---4v--4^------|
E|--------------------------2------2--2-----x-------------------------2--2------2^---2v--2^------|


e|----------------------2--3-----7p5p3---------5p3p2---------------------------|
B|--4-----4--x--4--4/5-----------------7p5p3---------5p3p0---------------------|
G|--2-----2--x--2--------------------------------------------------------------|
D|--4-----4--x--4--------------------------------------------------------------|
A|--2---2-------2--------------------------------------------------------------|
E|-------------------------0-----------------0---------------------------------|

e|---------------------0--2-------------------------------------------------|
B|--2-----2--2--2--2/3------------------------------------------------------|
G|--2-----2--2--1--------------2--0-----------------------------------------|
D|--2-----2--2--2---------0---------4--2--0---------------------------------|
A|--0---0-------0-----------------------------------------------------------|
E|--------------------------------------------------------------------------|

4:02 - 4:19

e|--0-------------0-----------------------2--5--3--2-----0--------------------|
B|----3--2--1--2-----3--2------------2----------------------4-----------------|
G|----------------4--------4--3--4---3-------5--4--2-----0--2-----------------|
D|----------------------------------------------------------4-----------------|
A|----------------4---------------------4----0--0--0--0--0--2-----------------|
E|-------4-----------------2---------2----------------------------------------|

e|---5h7p5-------------------------------------------------------------------|
B|---------8----8h10p8--7-----5h7p5--4------4--------------------------------|
G|----------------------------------------5---5--4---------------------------|
D|---------------------------------------------------------------------------|
A|---------------------------------------------------------------------------|
E|---------------------------------------------------------------------------|

4:20 - 4:40

e|-------------------------------------------------------------------2---2--x--------|
B|------------------------2----2--x---0---------------------------2--3---3--x--------|
G|-------1------------2---2----2--x-----2--1--2-----------------2----2---2--x--------|
D|-----3------------4-------------------------2--------------/4--------4-------------|
A|--/3-----------/4-------2--2----x---4-----------------0------------2---------------|
E|--------------------------------------------2--2--2/4------------------------------|

e|--2--2h4--0----0--------0-------0---4----2---0---0--2---0----------------------------------------|
B|--3---------3-------2---2-----2----------------4----0---0--0-4---2---0---0--2--------------------|
G|--2-----------------2---2---2------------------------------------2-----2------4-----------6\-----|
D|--2-----------------2---------------1--1----------------------------------------4---6-----6\-----|
A|---------------0--0---0-----------------------------4-4------2-2-----0--------------4--4---------|
E|---------------------------------------------4------------------------------4--------------------|

4:40 - 4:58

e|------------------------------------------------------2---2--x-------------|
B|-----------2----2--x---0---------------------------2--3---3--x-------------|
G|-------2---2----2--x-----2--1--2-----------------2----2---2--x-------------|
D|-----4-------------------------2--------------/4--------4------------------|
A|--/4-------2--2----x---4-----------------0------------2--------------------|
E|-------------------------------2--2--2/4-----------------------------------|

e|--2--2h4--0----0--------0-------0---4----2--------------------2---0---------------------|
B|--3---------3-------2---2-----2-----------------5p4--3h4------0---0--0-----4p2--1h2-----|
G|--2-----------------2---2---2-----------------------------------------------------------|
D|--2-----------------2---------------1--1------------------------------------------------|
A|---------------0--0---0---------------------------------------4-4-------2---------------|
E|---------------------------------------------4------------------------------------------|

e|-----------------------4-4-4---4-4-4----------------------------------------------------|
B|--2---0----------------x-x-x---x-x-x----------------------------------------------------|
G|--2-----2---1----3h5---6-6-6---6-6-6----------------------------------------------------|
D|----2------------------6-6-6---6-6-6----------------------------------------------------|
A|--0--------------------4-4-4---4-4-4----------------------------------------------------|
E|------------4----------x-x-x---x-x-x----------------------------------------------------|

4:58 - end

e|------------------------------------------------------8h11--9\--------4--------------|
B|----------------------------------------6/11-9p8-9/11-----------------4--------------|
G|--------------------------5h8---6p5-6/8---------------------10\-------4--------------|
D|------------3/8---6p5-6/8---------------------------------------------3--------------|
A|----4p3-4/6-----------------------------------------------------------4--------------|
E|-------------------------------------------------------------------------------------|


************************************
| /   slide up
| \   slide down
| h   hammer-on
| p   pull-off
| +   harmonic
| x   Mute note
************************************
Suggest correction
Creating personal tab
Creating personal tab
You can edit any tab online and save it as your Personal.

You can edit, replace or remove any tab part or add personal notes – all changes will be seen only by you.

Personal tabs can be accessed anytime from any device, even offline.
Learn more »
comments
print report bad tab
8 comments total. Showing first comments.
-2 reply
mtf_sepulveda 10 Dec 31, 2015 06:06 AM

Nope man http://www.songsterr.com/a/wsa/sungha-jung-merry-go-round-tab-s90909t0

+3 reply
Mully132 10 Jan 02, 2016 12:48 PM

The songsterr version isnt correct. This is way more accurate to sungha's version on the video. Nice work man really appreciate this :D

0 reply
Mully132 10 Jan 02, 2016 01:07 PM, edited at 10:23 pm

.

guest
You may want to rate the tab now too:
select rating
Wanna post a correction for this tab? Suggest correction