Oops, an error
Loading. Please wait.

Im Yours Tab

version 1
version 1

Whole song

Interactive

228,432 views 183 this week
2 commentsread comments
1 2 3 4 5
x 40
add to favorites
launch autoscroll
font size
0
reset
how to read this tab
guitar tuner
Autoscroll
slow
fast
+/-
esc
set tempo
stop
Help us to improve Ultimate-Guitar.com Take our survey!
×
Difficulty
Capo
advanced
4th fret
I'm Yours                                     


Track 1 (Capo 4)
     H        Q     Q       Q    E  E  E  E  E  E     E  E  E  E  Q     Q     
e|----------------/5----|--3----------------------|-------------------/5----|
B|----------------/5----|--3----------------------|-------------------/5----|
G|----------------------|-------x--0--------x--0--|--------x--0-------------|
D|----------------------|-------x--------0--x-----|-----0--x----------------|
A|----------------------|--0----------0-----------|--0-----------0----------|
E|----------------------|-------------------------|-------------------------|


    Q    E  E  E  E  E  E     E  E  E  E  Q     Q       Q    E  E  E  E  E  E   
e|--2-------2-----------2--|-----------2-------------|-------------------------|
B|--3-------3-----------3--|-----------3-------/5----|--0-------0-----------0--|
G|-------x--------2--x-----|-----2--x----------------|--0----x--0--------x--0--|
D|-------x-----------x-----|--------x----------------|-------x--------2--x-----|
A|-------------------------|-------------------------|-------------------------|
E|--0----------0-----------|--0-----------0----------|--2----------2-----------|


                                 ^                       
    E  E  E  E  E  E  E  E       Q    E  E  E  E  E  E   
e|--------------------------|---------------------------|
B|-----------0--------------|--0g1-------------1--------|
G|--------x--0--------x-----|----0----x--0--------x--0--|
D|-----2--x--------2--x-----|----2----x-----------x-----|
A|-----------------------5--|---------------5-----------|
E|--2-----------2-----------|---------------------------|


    E  E  E  E  E  E  E  E     E  E  E  E  E  E  E  E   
e|--------------------------|--------------------------|
B|-----1-----------0--------|--0-----------------------|
G|--------x--0--------x--0--|-----0--x--0--------x--0--|
D|--------x-----------x-----|--------x--------0--x-----|
A|--5-----------5-----------|--0-----------------------|
E|--------------------------|--------------0-----------|


    E  E  E  E  E  E  E  E     E  E  E  E  E  E  E  E   
e|--------------------------|--------------------------|
B|-----------------0--------|--0-----------------------|
G|--0--0--x--2--------x--0--|--------x-----------x-----|
D|--------x-----------x-----|-----4--x--4--------x--4--|
A|--0-----------0-----------|-----------------2--------|
E|--------------------------|--0-----------0-----------|


    E  E  E  E  E  E  E  E     E  E  E  E  E  E   E  E     Q    E  E  E  E  Q     
e|--------------------------|---------------------------|------------------------|
B|--------------------------|--0------------------------|------------------------|
G|--------x--------2--L-----|-----0--x--0---------x-----|-------x-----------x----|
D|--4--4--x--5--------x--0--|-----2--x--2-----4S--L--2--|-------x--2--------0----|
A|--------------------------|---------------------------|----------------0-------|
E|--0-----------0-----------|--2-----------2------------|--2----------2----------|


    Q    E  Q    E  E  E     E  E   E  E  E  E  E  E     E  E  E  E  E  E  E  E   
e|------------------------|---------------------------|--------------------------|
B|----------1----0-----0--|------------------0--------|--0-----------------------|
G|-------x--0----0--x--0--|-----2p--0--------0--x--0--|-----0--x--0--------x--0--|
D|-------x----------x-----|---------x--0--------x-----|--------x--------0--x-----|
A|--5-------5-------------|--5------------5-----------|--0-----------------------|
E|------------------------|---------------------------|--------------0-----------|


    E  E  E  E  E  E  E  E     E  E  E  E  E  E  E  E   
e|--------------------------|--------------------------|
B|-----------------0--------|--0-----------------------|
G|--0--0--x--2--------x--0--|--------x-----------x-----|
D|--------x-----------x-----|-----4--x--4--------x--4--|
A|--0-----------0-----------|-----------------2--------|
E|--------------------------|--0-----------0-----------|


    E  E  E  E  E  E  E  E     E  E  E  E  E  E   E  E     Q    E  E  E  E  Q     
e|--------------------------|---------------------------|------------------------|
B|--------------------------|--0------------------------|------------------------|
G|--------x--------2--L-----|-----0--x--0---------x-----|-------x-----------x----|
D|--4--4--x--5--------x--0--|-----2--x--2-----4S--L--2--|-------x--2--------0----|
A|--------------------------|---------------------------|----------------0-------|
E|--0-----------0-----------|--2-----------2------------|--2----------2----------|


                                  ^                      
    Q    E  E   E   E  E  E       Q    E  E  Q    E  E   
e|---------------------------|--------------------------|
B|---------------------------|--0g1----------0----L-----|
G|-------x-------------x-----|----0----x--0-------x--0--|
D|-------x--2----------x-----|----0----x----------x-----|
A|--5----------(5)--5-----5--|---------------5----------|
E|---------------------------|--------------------------|


                                              ^             
    Q    E   E   Q    E   E      Q    E   E   Q    E   E    
e|----------------------------|----------------------------|
B|--0----L--------------------|---------------0----L-------|
G|-------x-------0----L-------|-------x-------0----x-------|
D|-------x--(0)-------x--(0)--|--0----L--(0)-------x--(0)--|
A|--0------------0------------|--0------------0------------|
E|----------------------------|----------------------------|


                                             ^              
    Q    E   E   Q    E   E      E  E  E  E  Q     S  S E   
e|----------------------------|----------------------------|
B|----------------------------|----------------------------|
G|--2----L------------x-------|--------x-----2s----3s-2----|
D|-------x-------4----L-------|--0--L--x--0--0-----x--L-0--|
A|----------(0)----------(2)--|-----2----------------------|
E|--0------------0------------|--0--L--------0-------------|


    E  E  E  E  Q     E    E      Q    E  E  Q    E  E   
e|-----------------------------|------------------------|
B|-----------------------------|------------------------|
G|--0--L--x-----0-----x--------|-------x-----0----L-----|
D|-----2--x--2-------(2)-------|--2----L--2-------x--0--|
A|------------------------(0)--|------------------------|
E|--2--L--------2--------------|--2----------2----------|


                 ^                                                                
    Q    E  E    Q    E  E     Q    E   E  E  E  E  E     Q    E  E  E  E  E  E   
e|--------------------------|--------------------------|-------------------------|
B|-------------0g1----------|--0-----------------------|-------------------------|
G|-------x-------0----x--0--|--0----2p--0--L-----x--0--|--L----x--0--------x-----|
D|-------x-------0----x-----|--------------x--0--x-----|-------x--------0--x--0--|
A|--5-------5---------------|--5-----------------------|--0----------------------|
E|--------------------------|--------------------------|-------------0-----------|


    E  E  E  E  E  E  E  E     E  E   E  E  Q    E  E   
e|--------------------------|--------------------------|
B|--------------------------|-----3S--L--5--3-------3--|
G|--------x--0-----2--0-----|---------x----------x-----|
D|-----0--x--------------4--|---------x----------x-----|
A|--0-----------0-----------|--------------------------|
E|--------------------------|--0------------0----------|


    E  E  E  E  E  E  E  E     Q    E  E  E   E   E  E   
e|--------------------------|---------------------------|
B|-----------3--------------|---------------------------|
G|--------x-----------x-----|-------x-------------x--0--|
D|-----4--x--------0--x--2--|-------x--2-----(2)--x-----|
A|--------------------------|---------------------------|
E|--0-----------0-----------|--2----------2-------------|


    E  E  E  E  E  E  E   E        Q    E  E  E  E  E  E   
e|----------------------------|---------------------------|
B|----------------------------|---------------------------|
G|--------x--0--------x-------|---------x-----------x-----|
D|-----2--x--------0--x--(0)--|--0g2----x--2-----2--x--2--|
A|----------------------------|----5----------5-----------|
E|--2-----------2-------------|---------------------------|


    E  E  E  E  E  E  E  E     E  E  E  E  E  E  E  E   
e|--------------------------|--------------------------|
B|-----------------0--L-----|--0--L--------------------|
G|--------x--------0--x--0--|--0--0--x--0--------x--0--|
D|-----2--x--2--------x-----|--------x--------0--x-----|
A|--5-----------5-----------|--0-----------------------|
E|--------------------------|--------------0-----------|


    E  E  E  E   E  E  E  E     Q    E  E  E   E  E   E   
e|---------------------------|---------------------------|
B|------------------0-----3--|--L----------3p--0--3p--0--|
G|--0--0--x--0h--2-----x-----|-------x-------------------|
D|--------x------------x-----|-------x--4---------x------|
A|--0------------0-----------|---------------------------|
E|---------------------------|--0----------0-------------|


    Q    E  E  E  E  E  E     Q    E  E  E  E  E  E     E  E  E  E  E   E  E  E   
e|-------0-----------------|-------------------------|---------------------------|
B|--3----------0--------0--|-------------0--3-----1--|-----0-----0---------------|
G|----------------2--L-----|-------x-----------x-----|--------2-----2p--0--x-----|
D|-------------------x-----|-------x--2--------x-----|---------------------x-----|
A|-------------------------|-------------------------|------------------------5--|
E|--0-------0--------------|--2----------2-----------|--2------------------------|


    ^                                                   
                     |--3--|                            
    Q    E  E  E  E  E  E  E     Q    E  E  Q    E  E   
------------------------------|------------------------|
--0g1-------------0-----0-----|--0---------------------|
----0----x--0-----0--x-----2--|--0----x----------x-----|
----0----x-----------x--------|-------x-----0----x--0--|
---------------5--------------|--5-------5-------------|
------------------------------|------------------------|


    E  E  E  E  E  E  E  E     E  E  E  E   E  E  E  E   
e|--------------------------|---------------------------|
B|--------------------------|------------------0-----3--|
G|--0--0--x--0--------x--0--|-----0--x--0h--2-----x-----|
D|--------x--------0--x-----|--------x------------x-----|
A|--0-----------------------|--0------------0-----------|
E|--------------0-----------|---------------------------|


    Q    E  E  E   E  E   E     Q    E  E  E  E  E  E     Q    E  E  E  E  E  E   
e|---------------------------|-------0-----------------|-------------------------|
B|--L----------3p--0--3p--0--|--3----------0--------0--|-------------0--3--------|
G|-------x-------------------|----------------2--L-----|-------x-----------x--0--|
D|-------x--4---------x------|-------------------x-----|-------x--2--------x-----|
A|---------------------------|-------------------------|-------------------------|
E|--0----------0-------------|--0-------0--------------|--2----------2-----------|


                                  ^                       
    E  E  E  E  E   E  E  E       Q    E  E  E  E  E  E   
e|---------------------------|---------------------------|
B|-----0-----0---------------|--0g1-------------0--------|
G|--------2-----2p--0--x-----|----0----x--0--------x--2--|
D|---------------------x-----|----0----x-----------x-----|
A|------------------------5--|---------------5-----------|
E|--2------------------------|---------------------------|


                                                       ^                   
    Q    E  E  Q    E  E     E  E  H        Q       E  Q.      E  Q    E   
e|------------------------|----------------------|------------------------|
B|------------------------|-----0----------------|----------------0-------|
G|--0----x----------x-----|--------2--------L----|--L--2\------x--0----0--|
D|-------x-----0----x-----|--5-----5--------L----|--L--5-------x----------|
A|--5-------5----------6--|----------------------|-----6------------------|
E|------------------------|----------------------|------------------------|


                                              ^             
    Q    E   E   Q    E   E      Q    E   E   Q    E   E    
e|----------------------------|----------------------------|
B|--0----L--------------------|---------------0----L-------|
G|-------x-------0----L-------|-------x-------0----x-------|
D|-------x--(0)-------x--(0)--|--0----L--(0)-------x--(0)--|
A|--0------------0------------|--0------------0------------|
E|----------------------------|----------------------------|


                                             ^              
    Q    E   E   Q    E   E      E  E  E  E  Q     S  S E   
e|----------------------------|----------------------------|
B|----------------------------|----------------------------|
G|--2----L------------x-------|--------x-----2s----3s-2----|
D|-------x-------4----L-------|--0--L--x--0--0-----x--L-0--|
A|----------(0)----------(2)--|-----2----------------------|
E|--0------------0------------|--0--L--------0-------------|


    E  E  E  E  Q     E    E      Q    E  E  Q    E  E   
e|-----------------------------|------------------------|
B|-----------------------------|------------------------|
G|--0--L--x-----0-----x--------|-------x-----0----L-----|
D|-----2--x--2-------(2)-------|--2----L--2-------x--0--|
A|------------------------(0)--|------------------------|
E|--2--L--------2--------------|--2----------2----------|


                 ^                                      
    Q    E  E    Q    E  E     Q    E   E  E  E  E  E   
e|--------------------------|--------------------------|
B|-------------0g1----------|--0-----------------------|
G|-------x-------0----x--0--|--0----2p--0-----2--L--0--|
D|-------x-------0----x-----|--------------x-----x-----|
A|--5-------5---------------|--5-----------------------|
E|--------------------------|--------------------------|


                                              ^             
    Q    E   E   Q    E   E      Q    E   E   Q    E   E    
e|----------------------------|----------------------------|
B|--0----L--------------------|---------------0----L-------|
G|-------x-------0----L-------|-------x-------0----x-------|
D|-------x--(0)-------x--(0)--|--0----L--(0)-------x--(0)--|
A|--0------------0------------|--0------------0------------|
E|----------------------------|----------------------------|


                                             ^              
    Q    E   E   Q    E   E      E  E  E  E  Q     S  S E   
e|----------------------------|----------------------------|
B|----------------------------|----------------------------|
G|--2----L------------x-------|--------x-----2s----3s-2----|
D|-------x-------4----L-------|--0--L--x--0--0-----x--L-0--|
A|----------(0)----------(2)--|-----2----------------------|
E|--0------------0------------|--0--L--------0-------------|


    E  E  E  E  Q     E    E      Q    E  E  Q    E  E   
e|-----------------------------|------------------------|
B|-----------------------------|------------------------|
G|--0--L--x-----0-----x--------|-------x-----0----L-----|
D|-----2--x--2-------(2)-------|--2----L--2-------x--0--|
A|------------------------(0)--|------------------------|
E|--2--L--------2--------------|--2----------2----------|


                 ^                                                                
    Q    E  E    Q    E  E     Q    E   E  E  E  E  E     Q    E  E  E  E  E  E   
e|--------------------------|--------------------------|-------------------------|
B|-------------0g1----------|--0-----------------------|----------------0--------|
G|-------x-------0----x--0--|--0----2p--0--------x--0--|-------2--0--2-----x--0--|
D|-------x-------0----x-----|--------------x--0--x-----|-------x-----------x-----|
A|--5-------5---------------|--5-----------------------|--0----------0-----------|
E|--------------------------|--------------------------|-------------------------|


    E  E  E  E  E   E  E  E     E  E  E  E   E  E   E  E   
e|--------0------------------|----------------------------|
B|-----------0------------0--|--------3--1p--0------------|
G|-----0--------2p--0--2-----|------------------2p--0-----|
D|---------------------------|-----2-------------------2--|
A|--0------------------------|----------------------------|
E|---------------------------|--2-------------------------|


          ^                                             
    E  E  E  E  E  E   E  E     E  E  Q    E  E  E  E   
e|---------------------------|-------------------------|
B|--------0--3-----1p--0-----|-------------------------|
G|--------0---------------2--|-----0-------x-----------|
D|-----2---------------------|--------2----x--2-----2--|
A|---------------------------|--5----------------5-----|
E|--2-----------2------------|-------------------------|


                         ^     ^                    ^    
    E  E  E  E  E  E  E  E     E  E  E  E  E  E  E  E    
e|--------------------------|---------------------------|
B|-----------------------0--|--L------------------------|
G|--x-----------x--------0--|--L--2--x--------2--x--2\--|
D|--x--2-----2--x--0-----5--|--L-----x--5--------x--5---|
A|--------5-----------6-----|--------------6--------6---|
E|--------------------------|---------------------------|


    ^                                                   
    Q    E  E   E  E  E   E     Q    E  E  E   Q    E   
e|---------------------------|-------------------------|
B|-------0--3p--1--0---------|----------------/5----3--|
G|--L-----------------2p--0--|-------x--0--------------|
D|--L------------------------|-------x-----------------|
A|--L------------------------|--0----------0-----------|
E|---------------------------|-------------------------|


    E  E   E  E  E   E  E   E     Q    E  E   E  E   E  E   
e|-----------------------------|---------------------------|
B|-----1p--0------------0h--1--|--0----3--1p--0------------|
G|------------2--0h--2---------|-------x---------2p--0-----|
D|-----------------------------|-------x-------------x--0--|
A|-----------------------------|---------------------------|
E|--0--------------------------|--2------------------------|


    ^                                                   
    Q    E  E  E   E  E   E     Q    E  E  E  E  E  E   
e|---------------------------|-------------------------|
B|-------3-----1p--0---------|-------------------------|
G|--0----0------------2p--0--|-------x-----------x-----|
D|--2------------------------|--2----x--2-----2--x--2--|
A|---------------------------|--5----------5-----------|
E|--2-------2----------------|-------------------------|


                               ^  ^                       ^                       
    E  E  E  E  E  E  E  E     E  E  E  E  E  E  E  E     H         E  E   E  E   
e|--------------------------|--------------------------|---------------3h--7-----|
B|--------------------------|--0--L--------------0-----|-------------------------|
G|--------x-----------x-----|--0--L--2--x--------2--x--|--2\--------x---------0--|
D|-----2--x--2-----0--x-----|--5--L-----x--5--------x--|--5---------x------------|
A|--5-----------5--------6--|-----------------6--------|--6----------------------|
E|--------------------------|--------------------------|-------------------------|


    E  E  E  E   E   E  E  E     E  E  E  E  E  E  E   E    
e|--7--3-----3-------------3--|--3--3-----5-----7----------|
B|-------------------0--------|----------------------------|
G|--------x----------0--x-----|--------x-----------x--(7)--|
D|--------x-------------x-----|--------x-----------x-------|
A|--0--L----------------------|--0--L--------0-------------|
E|--------------(0)-----------|----------------------------|


    E  E  E  E  E  E  E  E     E  E  E  E  E   E  E  E   
e|--7-----------------------|---------------------------|
B|-----7-----7-----------7--|--7--7-----8-----10--------|
G|-----7--x--7-----7--x-----|--------x------------x--7--|
D|--------x-----------x-----|--------x------------x-----|
A|--------------------------|---------------------------|
E|--0-----------0-----------|--0-----------0------------|


    E  E  E  E  E  E  E  E     Q    E  E  Q    Q       Q    E    Q    E  E  E    
e|--7-----------------------|-----------------------|----------7g8----7-----7h--|
B|-----8-----8-----7--------|-----------------------|------------5----5---------|
G|-----7--x--7--------x--9--|-------x--9-------7----|--5----x------------x------|
D|--------x-----------x-----|-------x---------------|-------x------------x------|
A|--9-----------9-----------|--9----------9---------|--5---------5----L---------|
E|--------------------------|-----------------------|---------------------------|


    E  E  Q    E  E  E  E     E   E  E  E   E   E  E  E   
e|--L--5----------7-----3--|--7p--3-----3-------------3--|
B|--------8-------0--------|--------------------0--------|
G|-------------x-----x-----|---------x----------0--x-----|
D|-------------x-----x-----|---------x-------------x-----|
A|--5----------------------|--0---L----------------------|
E|-------------------------|---------------(0)-----------|


    E  E  E  E  E  E  E   E      E  E  E  E  E  E  E  E   
e|--3--3-----5-----7----------|--7-----------------------|
B|----------------------------|-----7-----7-----------7--|
G|--------x-----------x--(7)--|-----7--x--7-----7--x-----|
D|--------x-----------x-------|--------x-----------x-----|
A|--0--L--------0-------------|--------------------------|
E|----------------------------|--0-----------0-----------|


    E  E  E  E  E   E  E  E     E  E  E  E  E  E  E  E     Q    E  E  Q    Q     
e|---------------------------|--7-----------------------|-----------------------|
B|--7--7-----8-----10--------|-----8-----8-----7--------|-----------------------|
G|--------x------------x--7--|-----7--x--7--------x--9--|-------x--9-------7----|
D|--------x------------x-----|--------x-----------x-----|-------x---------------|
A|---------------------------|--9-----------9-----------|--9----------9---------|
E|--0-----------0------------|--------------------------|-----------------------|


                                ^                        ^        ^         
    Q    E  E  E  E  E  E       Q    E  E  Q    E  E     H        H         
e|-------------------------|--7g8----------7----------|--7--------3--------|
B|----------5--------------|----5---------------------|--0--------0--------|
G|--5----x--------5--x-----|----5----x--5-------x-----|--0--------0--------|
D|-------x-----------x-----|---------x----------x-----|--------------------|
A|--5----------5--------5--|---------------5-------0--|--------------------|
E|-------------------------|--------------------------|--------------------|


    ^         ^            ^                              ^               
    H         H            H        H           H         Q      E    E   
e|-----------/7--------|---------------------|---------------------------|
B|--3---------0--------|--10--------7--------|-----------10s----11s--10--|
G|--0---------0--------|---7-----------------|--7---------7--------------|
D|---------------------|---------------------|---------------------------|
A|---------------------|---------------------|---------------------------|
E|---------------------|---0-----------------|------------0--------------|


    ^                                          ^         ^         
    Q    Q    H           H        H           H         H         
e|---------------------|--------------------|-----------/8--------|
B|--8---------8--------|-----------8--------|------------5--------|
G|--7------------------|--9-----------------|--5---------5--------|
D|---------------------|--------------------|--5------------------|
A|-------9-------------|--------------------|--5------------------|
E|---------------------|--------------------|---------------------|


    ^                        ^        ^           ^         ^         
    Q.      E  Q    E  E     H        H           H         H         
e|--7p------5-------5-----|--7--------3--------|-----------/7--------|
B|--5----------8-------8--|--0--------0--------|--3---------0--------|
G|--5---------------------|--0--------0--------|--0---------0--------|
D|------------------------|--------------------|---------------------|
A|------------------------|--------------------|---------------------|
E|------------------------|--------------------|---------------------|


     ^                              ^                 ^                   
     H        H           H         Q      E    E     Q    Q    H         
e|---------------------|---------------------------|---------------------|
B|--10--------7--------|-----------10s----11s--10--|--8---------8--------|
G|---7-----------------|--7---------7--------------|--7------------------|
D|---------------------|---------------------------|---------------------|
A|---------------------|---------------------------|-------9-------------|
E|---0-----------------|------------0--------------|---------------------|


                         ^         ^           ^                      
    H        H           H         H           Q.      E  Q    E  E   
e|--------------------|-----------/8--------|--7p------5-------5-----|
B|-----------8--------|------------5--------|--5----------8-------8--|
G|--9-----------------|--5---------5--------|--5---------------------|
D|--------------------|--5------------------|------------------------|
A|--------------------|--5------------------|------------------------|
E|--------------------|---------------------|------------------------|


    Q    E  E  E  E  E  E     E  E  E  E   E  E  E  E   
e|-------------------------|---------------------------|
B|-------------------------|------------------0-----3--|
G|-------x--0--------x--0--|--------x--0h--2-----x-----|
D|-------x--------0--x-----|-----0--x------------x-----|
A|--0----------------------|--0------------0-----------|
E|-------------0-----------|---------------------------|


    Q    E  E  E   E  E   E     Q    E  E  E  E  E  E     Q    E  E  E  E  E  E   
e|---------------------------|-------0-----------------|-------------------------|
B|--L----------3p--0--3p--0--|--3----------0--------0--|-------------0--3-----1--|
G|-------x-------------------|----------------2--L-----|-------x-----------x-----|
D|-------x--4---------x------|-------------------x-----|-------x--2--------x-----|
A|---------------------------|-------------------------|-------------------------|
E|--0----------0-------------|--0-------0--------------|--2----------2-----------|


                                           ^           
    E  E  E  E  E   E  E  E     Q    E  E  Q    E  E   
e|---------------------------|-------------0----------|
B|-----0-----0---------------|-------------3----3-----|
G|--------2-----2p--0--x--0--|--L----x-----0----------|
D|---------------------x-----|-------x----------------|
A|---------------------------|--5-------5----------5--|
E|--2------------------------|------------------------|


    E   E  E   E  E  E  E  E     Q    E  E  Q    E  E     Q    E  E  E  E  E  E   
e|----------------------------|------------------------|-------------------------|
B|--1p--0------------0--------|--0----------0----------|--0-------------3--------|
G|---------2p--0--x--0--x--0--|-------x--0-------x--0--|-------x--0-----0--x--0--|
D|----------------x-----x-----|-------x----------x-----|-------x-----------x-----|
A|----------------------------|--0----------0----------|--0----------0-----------|
E|----------------------------|------------------------|-------------------------|


    Q    E  E  E  E  E  E     Q    E  E  E  E  E  E   
e|-------0-----------------|-------------------------|
B|--3-------3--1--0--1-----|----------------3--------|
G|----------------------2--|--L----x--2--------x-----|
D|-------------------------|-------x-----------x--0--|
A|--0----------------------|-------------------------|
E|-------------------------|-------------0-----------|


    E  E  E  E   E  E  E   E     E  E  E  E  E  E  E   E    
e|-----0----------------------|----------------------------|
B|--3--------1p--L--0---------|----------------------------|
G|--------x------------2p--0--|--x--------0--x-----x-------|
D|--------x-------------------|--x--2--------x--0--x--(0)--|
A|----------------------------|----------------------------|
E|--2------------2------------|--------2-------------------|


                                                           ^                  
      Q    E  E  E  E  E  E     E  E  E  E  E  E  E  E     Q    H.            
e|---------------------------|--------------------------|--------------------|
B|---------------------------|--------------------------|--0-----------------|
G|---------x-----------x-----|--------x--------0--x-----|--0----2------------|
D|--0g2----x--2-----2--x--2--|-----2--x--2-----0--x-----|--0-----------------|
A|----5----------5-----------|--5-----------5--------6--|--------------------|
E|---------------------------|--------------------------|--------------------|


    H        Q    E  E     E   E  E  E  E   E  E  E     Q    E  E  E  E  E  E   
e|----------------------|----------------------------|-------------------------|
B|----------------3--3--|--1p--0-----0---------------|-------------------------|
G|--L-------------------|---------2-----2p--0-----0--|-------x--0--------x--0--|
D|----------------------|----------------------0-----|--0----x--------0--x-----|
A|----------------------|----------------------------|--0----------0-----------|
E|----------------------|----------------------------|-------------------------|


    E  E  E  E  E  E  E  E     Q    E  E  E  E  E  E     E  E  E  E  E  E  E  E   
e|--------------------------|-------------------------|--------------------------|
B|--------------------------|-------------------------|--------------------------|
G|--------x--0--------x-----|-------x-----------x-----|--------x-----------x-----|
D|-----0--x--------0--x--4--|-------x--4--------x--4--|--------x--4-----0--x--2--|
A|--0-----------0-----------|----------------2--------|-----2--------------------|
E|--------------------------|--0----------0-----------|--0-----------0-----------|


    Q    E  E  E  E  E  E     E  E  E  E  E  E  E   E    
e|-------------------------|----------------------------|
B|-------------------------|----------------------------|
G|-------x-----------x-----|--------x-----------x-------|
D|-------x--2--------x--2--|--------x--2-----0--x--(0)--|
A|----------------0--------|-----0----------------------|
E|--2----------2-----------|--2-----------2-------------|


      Q    E  E  E  E  E  E     E  E  E  E  E  E  E  E   
e|---------------------------|--------------------------|
B|---------------------------|--------------------------|
G|---------x-----------x-----|--------x-----------x-----|
D|--0g2----x--2-----2--x--2--|-----2--x--2-----0--x--0--|
A|----5----------5-----------|--5-----------5-----------|
E|---------------------------|--------------------------|


    Q    E  E  E  E  E  E     E  E  E  E  E  E  E  E     Q    E  E  E  E  E  E   
e|-------------------------|--------------------------|-------------------------|
B|-------------------------|--------------------------|-------------------------|
G|--0----x--0--------x--0--|--------x--0--------x-----|-------x-----------x-----|
D|-------x--------0--x-----|-----0--x--------0--x--4--|-------x--4--------x--4--|
A|--0----------0-----------|--0-----------0-----------|----------------2--------|
E|-------------------------|--------------------------|--0----------0-----------|


    E  E  E  E  E  E  E  E     Q    E  E  E  E  E  E   
e|--------------------------|-------------------------|
B|--------------------------|-------------------------|
G|--------x-----------x-----|-------x-----------x-----|
D|--------x--4-----0--x--2--|-------x--2--------x--2--|
A|-----2--------------------|----------------0--------|
E|--0-----------0-----------|--2----------2-----------|


    E  E  E  E  E  E  E   E        W                  
e|----------------------------|---------------------||
B|----------------------------|---------------------||
G|--------x-----------x-------|---------------------||
D|--------x--2-----0--x--(0)--|--0g2----------------||
A|-----0----------------------|----5----------------||
E|--2-----------2-------------|---------------------||

 
************************************

| x    Dead note
| g    Grace note
| (n)  Ghost note
| h    Hammer-on
| p    Pull-off
| /    Slide up
| \    Slide down 

************************************
Suggest correction
comments
print report bad tab
2 comments total.
0 reply
montytanner 10 Sep 26, 2015 09:56 PM, edited at 09:57 pm

note :the low e and a string are both lowered a full step in this song. it is shown that way in the tab but you may not see that if you dont pay close enough attention

0 reply
monungolh1 10 Mar 29, 2016 07:00 AM

what is the meaning of "E" in top of the tab? sorry for my bad eng.

guest
You may want to rate the tab now too:
select rating
Wanna post a correction for this tab? Suggest correction