Oops, an error
Loading. Please wait.

Love Story Tab

version 1
version 1

Whole song

Interactive

121,887 views 294 this week
3 commentsread comments
1 2 3 4 5
excellent!
x 14
add to favorites
launch autoscroll
font size
0
reset
how to read this tab
guitar tuner
Autoscroll
slow
fast
+/-
esc
set tempo
stop
Help us to improve Ultimate-Guitar.com Take our survey!
×
Author
Difficulty
intermediate
Title: Love Story
Artist: Sungha Jung
Arranged by: Sungha Jung
Tabbed by: Ryan R. Gonzales
Location: Rosario, Batangas - Philippines
Tuning: e B G D A E (Standard Tuning)

[Intro] 
                                              
            PM PM PM PM PM PM PM       PM PM PM PM PM PM PM  
     E      E  E  E  E  E  E  E     E  E  E  E  E  E  E  E   
e|E||------------0-----0-----------|--------0-----0-----------|
B||---------------3-----3-----3--|-----------3-----3-----3--|
G||---------2--------------2-----|-----2--------------2-----|
D||--4---------------------------|--4-----------------------|
A||------------------------------|--------------------------|
E||------------------------------|--------------------------|

       PM PM PM PM PM PM PM       PM PM PM PM PM PM PM  
    E  E  E  E  E  E  E  E     E  E  E  E  E  E  E  E   
e|--------0-----0-----------|--------0-----0-----------|
B|-----------3-----3-----3--|-----------3-----3-----3--|
G|-----2--------------2-----|-----2--------------2-----|
D|--2-----------------------|--2-----------------------|
A|--------------------------|--------------------------|
E|--------------------------|--------------------------|

       PM PM PM PM PM PM PM       PM PM PM PM PM PM PM  
    E  E  E  E  E  E  E  E     E  E  E  E  E  E  E  E   
e|--------0-----0-----------|--------0-----0-----------|
B|-----------3-----3-----3--|-----------3-----3-----3--|
G|-----4--------------4-----|-----4--------------4-----|
D|--4-----------------------|--4-----------------------|
A|--------------------------|--------------------------|
E|--------------------------|--------------------------|

       PM PM PM PM PM PM PM       PM PM PM PM PM PM PM  
    E  E  E  E  E  E  E  E     E  E  E  E  E  E  E  E   
e|--------0-----0-----------|--------0-----0-----------|
B|-----------3-----3-----3--|-----------3-----3-----3--|
G|-----2--------------2-----|-----2--------------2-----|
D|--5-----------------------|--5-----------------------|
A|--------------------------|--------------------------|
E|--------------------------|--------------------------|


[Verse]
                                               
    E      E  E  E  Q    E  E     E   E  E  E  E  E  E  E   
e|-----------------------------|------------0--------------|
B|--3---------3-----3-------3--|--2h--3-----------3-----3--|
G|---------2-----2-------2-----|---------2-----------2-----|
D|--0---------------0----------|--0------------0-----------|
A|-----------------------------|---------------------------|
E|-----------------------------|---------------------------|

    E   E  E  E  E  E  E  E     E   E  E  E  E  E  E   E   
e|---------------------------|------------0---------------|
B|--2h--3-----3--------3--3--|--2h--3-----------3--2h--3--|
G|---------0--------0--------|---------0------------------|
D|---------------------------|----------------------------|
A|---------------------------|----------------------------|
E|--3------------3-----------|--3------------3------------|

       PM PM PM PM PM PM PM                              
    E  E  E  E  E  E  E  E     E  E  E  E  E   E  E  E   
e|--------0-----0-----------|---------------------------|
B|--0--------3-----3-----3--|--------3--3--3s--2--2-----|
G|--------------------4-----|---------------------------|
D|-----4--------------------|-----4------------------0--|
A|--2-----------------------|--2------------------------|
E|--------------------------|---------------------------|

             PM PM PM PM PM       PM PM PM PM PM          
    E  E  E  E  E  E  E  E     E  E  E  E  E  E   E   E   
e|--------------0-----------|--------0-----0-------------|
B|--------0--------3-----3--|-----------3-----3--(3)--3--|
G|--2--------0--------2-----|-----2--------------(0)-----|
D|-----0--------------------|---------------------x------|
A|--------------------------|----------------------------|
E|--3-----------------------|--3-------------------------|

    E  E  E  E  E  E  E  E     E   E  E  E  E  E   E   E   
e|--------------------------|------------0----------------|
B|--3-----3--3--------3--3--|--2h--3-----------3--(3)--3--|
G|-----2-----------2--------|---------2-----------(2)-----|
D|--0-----------0-----------|--0------------0------x------|
A|--------------------------|-----------------------------|
E|--------------------------|-----------------------------|

    E   E  E  E  E  E  E  E     E   E  E  E  E  E   E   E   
e|---------------------------|------------0----------------|
B|--2h--3-----3--------3--3--|--2h--3-----------3---2h--3--|
G|---------0--------0--------|---------0-----------(0)-----|
D|---------------------------|---------------------(0)-----|
A|---------------------------|-----------------------------|
E|--3------------3-----------|--3------------3------x------|

       PM PM PM PM PM PM PM                                
    E  E  E  E  E  E  E  E     E  E  E  E  E   E   E   E   
e|--------0-----0-----------|-----------------------------|
B|--0--------3-----3-----3--|--------3--3--3s--2---2------|
G|--------------------4-----|---------------------(0)-----|
D|-----4--------------------|-----4---------------(0)--0--|
A|--2-----------------------|--2-------------------x------|
E|--------------------------|-----------------------------|

    E  E  E  E  E  E  E  E     E  E  E  Q    E   E   E   
e|--------------------------|---------------------------|
B|--------0--------------2--|-----------2-------(2)--0--|
G|--2--------------2--------|--------2-------2--(2)-----|
D|-----2--------2-----2-----|-----2-------------(2)-----|
A|--0--------0--------------|--0-----------------x------|
E|--------------------------|---------------------------|


[Refrain]
                                                        
    E        E   E   E  E  E   E   E     E   E   E   E  E  E   E   E   
e|------------------------------------|--------------0----------------|
B|--3-----------(3)--3---------3---3--|--2h--3--(3)--------3--(3)--3--|
G|--------------(0)-----------(0)-----|---------(0)-----------(0)-----|
D|-----------0--(0)--------0--(0)-----|---------(2)-----------(2)-----|
A|------------------------------------|--0-------x------0------x------|
E|--3------------x------3------x------|-------------------------------|

    E  E   E   E  E  E   E   E      E    E    E   Q    E   E   E   
e|---------0--------------------|---5----3--------2--------2---0--|
B|--3--3---3------3--3---3---3--|--(3)--(3)--(3)-----------3------|
G|--------(4)-----------(4)-----|------------(2)-------2--(2)-----|
D|--------(4)-----------(4)-----|---0---------x---0-------(0)-----|
A|--2------x---2---------x------|---------------------------------|
E|------------------------------|--------------------------x------|

    E  E   E   E   E   E   E    E       E    E    E   E  E  E   E   S  S  
e|--2--0---2---0---2----------------|---0----0---(0)--0-------------2s-3-|
B|--------(3)-----(3)-----(3)---3---|--(3)--(3)--(3)--------3--(3)-------|
G|--------(0)-----(0)-----(0)--(0)--|------------(0)-----------(0)-------|
D|------------------------(0)-------|------------(2)-----------(2)-------|
A|-------------------------x--------|---0---------x------0------x--------|
E|--3------x-------3---3------------|------------------------------------|

                    v                v                           
    E  E   E   Q    E   E   E     E  E  E  E  E   E    E    E    
e|--L--2---2--------2---2------|--------3--2------0---(0)-------|
B|--------(3)-------3--(3)-----|-----3-----------(3)--(3)-------|
G|--------(4)-------4--(4)-----|-----4---------------------(0)--|
D|--------(4)----------(4)-----|-----4-----------------x--------|
A|--2------x---2--------x---2--|--L-----x-----2-----------------|
E|-----------------------------|--------------------------------|


[Chorus]
                                                           
    E       E   E   E  E  E   E   E     E   E    E   E  E  E   E   E   
e|--------------3------2--0---0------|------0----0------2------0------|
B|--3-------3--(3)-----------(3)-----|--3--(3)--(3)--3-----3--(3)-----|
G|-------------(2)-----------(2)-----|-----(2)--(2)-----------(2)-----|
D|--0-----------x---0---------x---0--|-----------x------0-------------|
A|-----------------------------------|-------------------------x---0--|
E|-----------------------------------|--------------------------------|

    E  E   E   E  E  E   E   E     E  E   E   E  E  E   E   E   
e|---------0------2------0------|-----0---0------2------0------|
B|--3-----(3)--3--------(3)-----|--3-----(3)--3-----3--(0)-----|
G|--------(0)-----------(0)-----|--------(0)-------------------|
D|--------(2)-----------(2)-----|--------(2)-------------------|
A|--0--0---x------0--0---x---0--|--0------x------0------x---0--|
E|------------------------------|------------------------------|

    E  E   E   E  E  E   E   E     E  E   E   E  E  E   E   E   
e|---------0------2------0------|---------0------2------0------|
B|--3-----(3)--3--------(3)-----|--3-----(3)--3--------(3)-----|
G|--------(4)-----------(4)-----|--------(4)-----------(4)-----|
D|--------(4)-----------(4)-----|--------(4)-----------(4)-----|
A|--2--2---x------2--2---x---2--|--2--2---x------2--2---x---0--|
E|------------------------------|------------------------------|

    E   E    E   E  E  E   E   E      E   E   E   E  E  E  Q     
e|-----------0------2------2------|---2---0---2---0--2----------|
B|--3---3---(3)--3--------(3)--3--|--(3)-----(3)-----3-----3----|
G|-----(0)--(0)-----------(0)-----|----------(0)-----------2----|
D|--------------------------------|----------(2)----------------|
A|-------------------------x------|---0-------x------0----------|
E|--3---3----x------3--3----------|-----------------------------|


[Interlude]
                                                  
               PM PM PM PM PM PM PM       PM PM PM PM PM          
    E          E  E  E  E  E  E  E     E  E  E  E  E  E   E   E   
e|----------------0-----0-----------|--------0-----0-------------|
B|-------------------3-----3-----3--|-----------3-----3--(3)-----|
G|-------------2--------------2-----|-----2--------------(2)--2--|
D|--0-------------------------------|--0------------------x------|
A|----------------------------------|----------------------------|
E|----------------------------------|----------------------------|


[Verse]
                                                         
    E      E   E   E  E  E   E   E      E   E   E   E  E  E   E   E   
e|----------------------------------|---------------0----------------|
B|--3----------3---3--------(3)--3--|---2h--3--(3)--------3--(3)--3--|
G|---------2--(2)--------2--(2)-----|--(2)-----(2)-----------(2)-----|
D|--0----------x------0------x------|---0-------x------0------x------|
A|----------------------------------|--------------------------------|
E|----------------------------------|--------------------------------|

    E   E   E   E  E  E   E   E     E   E   E   E  E  E   E    E   
e|-------------------------------|--------------0-----------------|
B|--2h--3-------3---------3---3--|--2h--3-------------3--(2)h--3--|
G|---------(0)--------0---L---L--|---------(0)-----------(0)------|
D|---------(0)-----------(0)-----|---------(0)-----------(0)------|
A|-------------------------------|------------------------x-------|
E|--3-------x------3------x------|--3-------x------3--------------|

    E  E   E   E  E  E   E   E     E  E   E   E  E   E   E   E   
e|---------0------0-------------|-------------------------------|
B|--0-----(3)--3-----3-------3--|--------(3)--3--3s--2--(2)-----|
G|--------(4)------------4------|--------(4)------------(0)-----|
D|-----4--(4)-----------(4)-----|-----4--(4)------------(0)--0--|
A|--2------x------2------x------|--2------x--------------x------|
E|------------------------------|-------------------------------|

    E  E   E   E  E  E   E   E     E  E   E   S  S E  E   E    E    
e|------------------------------|-------------2s-3----2---2--------|
B|---------0---------0-------2--|---------------------0--(0)-------|
G|--2-----(2)--------2--(2)--2--|---------2--------------(0)--(0)--|
D|-----2--(2)-----2-----(2)-----|-----2--(2)-----------------------|
A|--0------x---0---------x------|--0------x--------0------x----0---|
E|------------------------------|----------------------------------|


[Refrain]
                                                          
    E        E   E   E  E  E   E   E     E   E   E   E  E  E   E   E   
e|------------------------------------|--------------0----------------|
B|--3-----------(3)--3---------3---3--|--2h--3--(3)--------3--(3)--3--|
G|--------------(0)-----------(0)-----|---------(0)-----------(0)-----|
D|-----------0--(0)--------0--(0)-----|---------(2)-----------(2)-----|
A|------------------------------------|--0-------x------0------x------|
E|--3------------x------3------x------|-------------------------------|

    E  E   E   E  E  E   E   E      E    E    E   Q    E   E   E   
e|---------0--------------------|---5----3--------2--------2---0--|
B|--3--3---3------3--3---3---3--|--(3)--(3)--(3)-----------3------|
G|--------(4)-----------(4)-----|------------(2)-------2--(2)-----|
D|--------(4)-----------(4)-----|---0---------x---0-------(0)-----|
A|--2------x---2---------x------|---------------------------------|
E|------------------------------|--------------------------x------|

    E  E   E   E   E   E   E    E       E    E    E   E  E  E   E   S  S  
e|--2--0---2---0---2----------------|---0----0---(0)--0-------------2s-3-|
B|--------(3)-----(3)-----(3)---3---|--(3)--(3)--(3)--------3--(3)-------|
G|--------(0)-----(0)-----(0)--(0)--|------------(0)-----------(0)-------|
D|------------------------(0)-------|------------(2)-----------(2)-------|
A|-------------------------x--------|---0---------x------0------x--------|
E|--3------x-------3---3------------|------------------------------------|

                    v                v                           
    E  E   E   Q    E   E   E     E  E  E  E  E   E    E    E    
e|--L--2---2--------2---2------|--------3--2------0---(0)-------|
B|--------(3)-------3--(3)-----|-----3-----------(3)--(3)-------|
G|--------(4)-------4--(4)-----|-----4---------------------(0)--|
D|--------(4)----------(4)-----|-----4-----------------x--------|
A|--2------x---2--------x---2--|--L-----x-----2-----------------|
E|-----------------------------|--------------------------------|


[Chorus]
                                                           
    E       E   E   E  E  E   E   E     E   E    E   E  E  E   E   E   
e|--------------3------2--0---0------|------0----0------2------0------|
B|--3-------3--(3)-----------(3)-----|--3--(3)--(3)--3-----3--(3)-----|
G|-------------(2)-----------(2)-----|-----(2)--(2)-----------(2)-----|
D|--0-----------x---0---------x---0--|-----------x------0-------------|
A|-----------------------------------|-------------------------x---0--|
E|-----------------------------------|--------------------------------|

    E  E   E   E  E  E   E   E     E  E   E   E  E  E   E   E   
e|---------0------2------0------|-----0---0------2------0------|
B|--3-----(3)--3--------(3)-----|--3-----(3)--3-----3--(0)-----|
G|--------(0)-----------(0)-----|--------(0)-------------------|
D|--------(2)-----------(2)-----|--------(2)-------------------|
A|--0--0---x------0--0---x---0--|--0------x------0------x---0--|
E|------------------------------|------------------------------|

    E  E   E   E  E  E   E   E     E  E   E   E  E  E   E   E   
e|---------0------2------0------|---------0------2------0------|
B|--3-----(3)--3--------(3)-----|--3-----(3)--3--------(3)-----|
G|--------(4)-----------(4)-----|--------(4)-----------(4)-----|
D|--------(4)-----------(4)-----|--------(4)-----------(4)-----|
A|--2--2---x------2--2---x---2--|--2--2---x------2--2---x---0--|
E|------------------------------|------------------------------|

    E   E    E   E  E  E   E   E      E   E   E   E   E    E    E   E   
e|-----------0------2------2------|---2---0---2---0---2----------------|
B|--3---3---(3)--3--------(3)--3--|--(3)-----(3)-----(3)--(3)---3------|
G|-----(0)--(0)-----------(0)-----|----------(0)-----(0)--(0)--(0)--0--|
D|--------------------------------|----------(2)----------------x------|
A|-------------------------x------|---0-------x-------0----0-----------|
E|--3---3----x------3--3----------|------------------------------------|

    E  E   E   E  E  E   E   E     E   E    E   E  E  E   E   E   
e|---------3------2--0---0------|------0----0------2------0------|
B|--3--3--(3)-----------(3)-----|--3--(3)--(3)--3-----3--(3)-----|
G|--------(2)-----------(2)-----|-----(2)--(2)-----------(2)-----|
D|--0------x---0---------x---0--|-----------x------0-------------|
A|------------------------------|-------------------------x---0--|
E|------------------------------|--------------------------------|

    E  E   E   E  S S E   E   E     E  E   E   E  E  E   E   E   
e|---------0------2---2---0------|---------0------5------0------|
B|--3-----(3)--3---------(3)-----|-----3--(3)--3--------(0)-----|
G|--------(0)------------(0)-----|--------(0)-------------------|
D|--------(2)------------(2)-----|--------(2)-------------------|
A|--0--0---x------0---0---x---0--|--0------x---0--0--0---x---0--|
E|-------------------------------|------------------------------|

    E  E   E   E  E  E   E   E     E  E   E   E  E  E   E   E   
e|---------0------2------0------|---------0------2------0------|
B|--3-----(3)--3--------(3)-----|--3-----(3)--3--------(3)-----|
G|--------(4)-----------(4)-----|--------(4)-----------(4)-----|
D|--------(4)-----------(4)-----|--------(4)-----------(4)-----|
A|--2--2---x------2--2---x---2--|--2--2---x------2--2---x---0--|
E|------------------------------|------------------------------|

     E    E    E    E    E   E   E   E      E   E   E   E  E  E  Q      
e|---2----0----2----0----2-------2------|---2---0---2---0--2-----------|
B|--(3)--(3)--(3)--(3)--(3)-----(3)--3--|--(3)-----(3)-----3-----3-----|
G|------------(0)---------------(0)-----|----------(0)-----------2~----|
D|--------------------------------------|----------(2)-----------------|
A|-------------------------------x------|---0-------x------0-----------|
E|---3---------x---------3---3----------|------------------------------|


[Interlude]
                                                          
    E          E   E   E  E  E   E   E     E  E   E   E  E  E   E   E   
e|-----------------0-------------0------|---------0-------------0------|
B|----------------(0)-----7-----(0)-----|--------(0)-----7--7--(0)-----|
G|-------------7--(7)--7-----7--(7)--7--|-----7--(7)--7--------(7)-----|
D|--0--------------x------0------x------|--0------x------0-----(0)--0--|
A|--------------------------------------|------------------------------|
E|--------------------------------------|-----------------------x------|

    E  E   E   E  E  E   E   E     E  E   E   E  E  E  E  E   
e|-----------------------0------|---------0------------------|
B|--------(0)-----7-----(0)-----|--------(0)--------------0--|
G|--6--7--(7)--7-----7--(7)--7--|-----7--(7)--7--6--7--6-----|
D|------------------------------|----------------------------|
A|------------------------------|----------------------------|
E|--8------x------8------x------|--8------x------8-----x-----|

    E  E   E   E  E  E   E   E     E  E  E  E  E  E  E  E   
e|----------------0-------------|--------------------------|
B|--8------7--------------------|-----------0--------------|
G|-----7--(7)--7-----7--(7)--7--|--6--7--6--------0-----0--|
D|------------------------------|--------------7-----4-----|
A|------------------------------|--------------------------|
E|--7------x------7------x------|--7-----x-----7-----x-----|


                             [Bridge]     
    
    E  E  E  E  E  E  E  E     E   E  E  E  E       E  E  E   
e|--0-----------------------|---------------2p------0--------|
B|-----------------0--0-----|-----------------------------2--|
G|-----7--7--6--6--------2--|--2p--0--0----------------0-----|
D|--------------------------|------------4-------------------|
A|--------x-----x-----x-----|--0------x-----0----------------|
E|--6-----------------------|--------------------------------|

                                      ^                       
    Q     E   Q     E    E    E       Q.      Q    E   E  E   
e|--------------------------------|-----------------------0--|
B|------------3-------------------|--(3)-----------2h--3-----|
G|-------(0)------------(0)-------|--(0)------0--------------|
D|-----------------(0)-------(0)--|--(0)---------------------|
A|--2-----------------------------|--(2)---------------------|
E|--------------------------------|--(3)---------------------|

                                ^                        
    E  E  E  E  E  E  E  E      Q.      E  E   E  E  E   
e|--2--2--2--2--2--3--2--0--|--------------2p--0--------|
B|--3--3--3--3--3--3--------|--(2)-------------------2--|
G|--------------------------|--(2)------2---------0-----|
D|--0--0--------------------|--(2)----------------------|
A|--------------------------|--(0)----------------------|
E|--------------------------|---------------------------|

                                       ^                         
    E  S  S  E   Q     E    E   E      H          E    E   Q     
e|---------------0-----------------|----------------------------|
B|-----Ls-3---------------------3--|---L-------------------3----|
G|----------(0)------------(0)-----|--(0)-------------(0)--0----|
D|--------------------(0)----------|--(0)--------(0)------------|
A|--2------------------------------|--(2)-----------------------|
E|---------------------------------|--(3)-----------------------|

               |----3----|                                    
   E  E  E  E  Q    Q    Q       Q     E    E   E   E  E  E 
e|--2--2--2--2--5----2----0----|--0--------------2p--0--------|
B|--3--3--3--3-------3---------|---------------------------3--|
G|-----------------------------|------------(2)---------------|
D|--0--0-----------------------|-------(2)--------------------|
A|-----------------------------|--0---------------------0-----|
E|-----------------------------|------------------------------|


[Chorus]
                                                   
    PM      PM PM PM PM  PM PM PM    PM PM PM PM PM PM PM PM  
    E       E  E  E  E   E  E  E     E  E  E  E  E  E  E  E   
e|-------------3-----2p--0--------|--------0-----2-----0-----|
B|----------3---------------3-----|-----3-----3-----3--3-----|
G|--------------------------------|--------------------------|
D|--0-------0--0--0--0---0--0--0--|--0--0--0--0--0--0--0-----|
A|--------------------------------|-----------------------0--|
E|--------------------------------|--------------------------|

    PM PM PM PM PM PM PM PM    PM PM PM PM PM PM PM PM  
    E  E  E  E  E  E  E  E     E  E  E  E  E  E  E  E   
e|--------0-----2-----0-----|--------0-----2-----0-----|
B|-----3-----3--3-----3-----|-----3-----3--3-----0-----|
G|--------------------------|--------------------------|
D|--------------------------|--------------------------|
A|--0--0--0--0--0--0--0--0--|--0--0--0--0--0--0--0--0--|
E|--------------------------|--------------------------|

    PM PM PM PM PM PM PM PM    PM PM PM PM PM PM PM PM  
    E  E  E  E  E  E  E  E     E  E  E  E  E  E  E  E   
e|--------0-----2-----0-----|--------0-----2-----0-----|
B|--3-----3--3--------3-----|-----3-----3--------0-----|
G|--------------------------|--------------------------|
D|--------------------------|--------------------------|
A|--2--2--2--2--2--2--2--2--|--2--2--2--2--2--2--2--0--|
E|--------------------------|--------------------------|

    PM PM PM PM PM PM PM PM    PM PM PM PM PM          
    E  E  E  E  E  E  E  E     E  E  E  E  E  E  Q     
e|--------0-----2-----0-----|--------0-----2-----0----|
B|--3--3-----3--------------|--3--3-----3--3-----0----|
G|--------------------------|-------------------------|
D|--------------------------|--------------------0----|
A|--------------------------|--0--0--0--0--0----------|
E|--3--3--3--3--3--3--3--3--|-------------------------|

        v                                                                      
    E   E    E   E  E  E   E    E       E    E    E    E    S  S  E    E   E   
e|--0---0----7------4--2---2----0---|---0----2----2----0----2s-4-(0)---2------|
B|--0---0---(0)-----------(0)--(0)--|--(0)--(0)--(0)--(0)--(0)---(0)--(0)-----|
G|--1--(0)----------------(0)-------|------------(0)------------------(0)-----|
D|----------------------------------|-----------------------------------------|
A|----------------------------------|----------------------------------x---0--|
E|--0--------x---0---------x--------|---0---------x---------0-----------------|

    E  E  E  E  E  E   E   E     E  E  E  E  E  E  E    E   
e|-----0--2-----4--4---2------|-----0--2-----4-----2-------|
B|--------------------(4)-----|----------------------------|
G|----------------------------|----------------------------|
D|----------------------------|----------------------------|
A|--2-----x--2---------x---2--|--2-----x--2-----2--x--2g4--|
E|----------------------------|----------------------------|

    E  E  E  E  E  E  E  E     E  E  E  E  E  E  E   E    
e|--------------4-----------|--------------4-------------|
B|--5-----7--5--------7-----|--5--5--7--5--------7-------|
G|--------------------------|-----------------------(0)--|
D|-----6-----------------6--|-----------------------(0)--|
A|--L-----x-----4--4--x-----|--4-----x-----4--4--x---0---|
E|--------------------------|----------------------------|

    E  E   E    E   E  E   E   E     E  E  E  E  E   E  E  E   
e|--4--2---4----2---4------4------|--4--2--4--2--4p--2--x-----|
B|--2--2--(2)--(2)--2------2------|---------------------x-----|
G|--2-----(2)-------2------2---0--|---------------------x-----|
D|--------(2)-------------(2)-----|---------------------x-----|
A|--0--0---x--------0--0---x------|--2-----x-----2------x--2--|
E|--------------------------------|---------------------------|

       v            v                 v                          
    E  E   E   Q    E   E   E     E   E    E   E  E  S  S E  E   
e|-----0---0--------0---0------|-----------0---------2s-4----2--|
B|-----0---0--------0---0------|------0----0--------------------|
G|-----1---1--------1---1------|------1----1------1-------------|
D|--------(2)----------(2)-----|------2---(2)-------------------|
A|--------(2)----------(2)-----|-----(2)--(2)-------------x-----|
E|--0------x---0--------x---0--|--L--------x---0----------------|

                   v                  v                            
    E  E  E  Q     E    E   E     E   E    E   E   E   S  S E  E   
e|-----4-----------2----2------|------2----2----------------------|
B|-----------------4----4------|------4----4------(4)--5s-7----5--|
G|----------------(2)---2------|------2----2------(2)-------------|
D|----------------(4)--(4)-----|-----(4)--(4)-----(4)-------------|
A|--2-----x--2----------x---2--|--L--------x---2------------x-----|
E|-----------------------------|----------------------------------|

                    v              v          v         
    E   E   E  Q    E  E  E     E  E  E  Q    E  E  E   
e|------------------4--4-----|-----4--4-------4--------|
B|-----(5)----------5--5-----|-----5--5-------5--5-----|
G|------6-----------6--6-----|-----6--6-------6--6--0--|
D|------6--------------6-----|--------6----------6--0--|
A|--4-------x--4-------x--4--|--L-----x--4-------x-----|
E|---------------------------|-------------------------|

    E  E  E  E  E  E   E   E     E   E    E   S  S E   E    E   E   
e|--0--0-----0-----0-------0--|---------------0h-2--------------0--|
B|--2--2-----2-----2--(2)-----|------2---(2)-----------2-----------|
G|--2--------2--------(2)-----|------2---(2)-----------2---(2)-----|
D|--------------------(2)-----|-----(2)--(2)----------(2)--(2)-----|
A|--0-----x-----0------x------|--0--------x--------0--------x------|
E|----------------------------|------------------------------------|

    ^                  
    W                  
e|--0----------------||
B|--0----------------||
G|--1----------------||
D|--2----------------||
A|--2----------------||
E|--0----------------||



************************************************
Duration Legend

W - whole
H - half
Q - quarter
E - 8th
S - 16th
T - 32nd
X - 64th
. - note dotted
|-n-|  - n-tuplets

************************************************
Tablature Legend

L  - tied note
x  - dead note
g  - grace note
h  - hammer on
p  - pull off
s  - legato slide
~  - vibrato
^  - downstroke
PM - palm mute

************************************************

echo "Hello World!";
Play until your fingers bleed!
Suggest correction
What's this?
You can suggest a correction to this tab. Community and Mods will review your correction and vote to approve or reject it.
comments
print report bad tab
3 comments total.
0 reply
guitarhero_15 93 wrote on December 22 2011, 11:25 pm

tol nice tab and nice band.......sana marami ka pang ipo-post na tab........

0 reply
guitarhero_15 93 wrote on January 30 2012, 04:33 am

pa post po rin ng tab ng just the way you are - sungha jung.request lng po to kung pwde :)...tnx po

0 reply
WannaGoToHell 13 wrote on April 17 2013, 01:47 pm

Awesome Tab... You rock

guest
You may want to rate the tab now too:
select rating
Please do not post tabs as comments. Select "correction" instead!