Oops, an error
Loading. Please wait.

Mad World Tab

version 2
version 2

Whole song

Interactive

43,095 views 108 this week
8 commentsread comments
1 2 3 4 5
excellent!
x 33
add to favorites
launch autoscroll
font size
0
reset
how to read this tab
guitar tuner
Autoscroll
slow
fast
+/-
esc
set tempo
stop
Help us to improve Ultimate-Guitar.com Take our survey!
×
Author
Capo
5th fret
'Mad World' by 'Sungha Jung'
I hope you like it, goodluck!
Capo 5th or 8th fret


[Intro]

E |-----0-------------------------------------|
B |--1-----0--1-----0-------------------------|
G |--------------2-----0----------------------|
D |--------2--------------4--------2----0-----|
A |--0-----------0-----0--------0----------0--|
E |--------------------------0-------0--------|

E |-----0-------------------------------------|
B |--1-----0--1-----0--1---3------------------|
G |--------------2-----------------0----------|
D |--------2-----------2---------0---4-2-0----|
A |--0-----------0-------------0-----------0--|
E |--------------------------0----------------|


[Verse]

E |-----------------------0--0-----0----------|
B |-----------1--1--------1-------------1-----|
G |-----2--2--------2--0----------------------|
D |-----2-----------2-----------2----------2--|
A |--0--------0-----------3-----------3-------|
E |-------------------------------------------|
                                               4X
E |-------------------------------------------|
B |--3--3-----3---0-----3--3-----3----1--0----|
G |--4------------------2-------------------2-|
D |--------0---------0--------0----------0----|
A |-------------------------------------------|
E |--5----------5-------0----------0----------|


[Bridge]

E |-----------------0--0--2-----------2--2--------|
B |-----------1--1--1-----3--3-----3--3-----3--3--|
G |-----2--2--0--------------2-----2--------2-----|
D |-----2-----------------------------------------|
A |--0--------0-----0-----0-----0-----0-----0-----|
E |-----------------------------------------------|
                                                   2X
E |-----------------0--1--2-----------2--2--------|
B |-----------1--1--1-----3--3-----3--3-----3--3--|
G |--2-----2--2--------------2-----2--------2-----|
D |-----2-----------------------------------------|
A |--0--------0-----0-----0-----0-----------------|
E |-----------------------------------------------|

E |------------x---------0------------------------x---------0-------|
B |---------1--x-----0/1----0/1----------------1--x-----0/1----0/1--|
G |------0--0--x--2--------------2\0--------0--0--x--2--------------|
D |----2-------x--0-----------------------2-------x--0--------------|
A |--0------0--X--0---------------------0------0--X--0--------------|
E |------------x----------------------------------x-----------------|


[Verse]

E |-----------------------0--0-----0----------|
B |-----------1--1--------1-------------1-----|
G |-----2--2--------2--0----------------------|
D |-----2-----------2-----------2----------2--|
A |--0--------0-----------3-----------3-------|
E |-------------------------------------------|
                                               4X
E |-------------------------------------------|
B |--3--3-----3---0-----3--3-----3----1--0----|
G |--4------------------2-------------------2-|
D |--------0---------0--------0----------0----|
A |-------------------------------------------|
E |--5----------5-------0----------0----------|


[Bridge]

E |-----------------0--0--2-----------2--2--------|
B |-----------1--1--1-----3--3-----3--3-----3--3--|
G |-----2--2--0--------------2-----2--------2-----|
D |-----2-----------------------------------------|
A |--0--------0-----0-----0-----0-----0-----0-----|
E |-----------------------------------------------|
                                                   2X
E |-----------------0--1--2-----------2--2--------|
B |-----------1--1--1-----3--3-----3--3-----3--3--|
G |--2-----2--2--------------2-----2--------2-----|
D |-----2-----------------------------------------|
A |--0--------0-----0-----0-----0-----------------|
E |-----------------------------------------------|

E |------------x---------0------------------------x---------0-------|
B |---------1--x-----0/1----0/1----------------1--x-----0/1----0/1--|
G |------0--0--x--2--------------2\0--------0--0--x--2--------------|
D |----2-------x--0-----------------------2-------x--0--------------|
A |--0------0--X--0---------------------0------0--X--0--------------|
E |------------x----------------------------------x-----------------|

   Ending
E |-----0-------------------------------------|
B |--1-----0--1-----0-------------------------|
G |--------------2-----0----------------------|
D |--------2--------------4--------2----0-----|
A |--0-----------0-----0--------0----------0--|
E |--------------------------0-------0--------|
                                               2X
E |-----0-------------------------------------|
B |--1-----0--1-----0--1---3------------------|
G |--------------2-----------------0----------|
D |--------2-----------2---------0---4--------|
A |--0-----------0-------------0--------------|
E |--------------------------0----------------|



Something like that...

************************************

| x  Dead note
| /  Slide up
| \  Slide down

************************************
Suggest correction
comments
print report bad tab
8 comments total. Showing first comments. show 1 bad comment
+4 reply
bxr_con 41 wrote on January 12 2012, 01:57 am

but drop D

+2 reply
Chri588 21 wrote on February 7 2012, 09:04 am

I believe bxr_con is right. Tuning is drop D.

guest
You may want to rate the tab now too:
select rating
Wanna post a correction for this tab? Suggest correction