Oops, an error
Loading. Please wait.

Make You Feel My Love tab

version 1
version 1

Whole song

Interactive

67,530 views 165 this week
3 commentsread comments
1 2 3 4 5
x 42
add to favorites
×
Save as Personal and add changes to this tab that will be seen only by you. Learn more ›
×
You can save this tab as Personal to edit and correct it or add notes. All changes will be seen only by you. Learn more »
launch autoscroll
font size
0
reset
how to read this tab
guitar tuner
edit
Autoscroll
slow
fast
+/-
esc
set tempo
stop
Capo 3.


[Intro]

e|--------------------------------------3---2------------------------------------------|
B|---3-------------3-----------------3------3----------3-------------------------------|
G|---0-------------0--------------0---------2----------2-------------------------------|
D|------------------------------------------0---------------------------0h2p0----------|
A|-------------------------------------------------------------------------------------|
E|-------------------------------------------------------------------------------------|

e|-------------------------------------------------------------------------------------|
B|---1-------------1---------------------------1----------1----------------------------|
G|---2-------------2---------------0h2---------0----------0----------------------------|
D|---3-------------3------------3-------3------2----------2---------------0------------|
A|---------------------------3-----------------3----------3----------------------------|
E|-------------------------------------------------------------------------------------|

e|-------------------------------------------------------------------------------------|
B|---1-------------1--------------1h3------------0----------0--------------------------|
G|---0-------------0-----------0---------0h2-----0----------0--------------------------|
D|---1-------------1--------1------------------------------------------------0---------|
A|---3-------------3--------------0----------------------------------------------------|
E|-----------------------------------------------3----------3--------------------------|

e|-------------------------------------------------------------------------------------|
B|---1-------------1---------------------0---------------------------------------------|
G|---0-------------0---------------------0-------------------------0h2-----------------|
D|---1-------------0---------------------0---------------------0h2---------------------|
A|---0-------------3---------------------------------------0h2-------------------------|
E|---------------------------------------3---------------------------------------------|


[Verse 1]

e|-------------------------------------------------------------------------------------|
B|------------3---3---3--------1--0------3---------------------------------------------|
G|------------0---0---0------------------2-----------2---2-----------------------------|
D|--------0---------------0----------------------0------------------------0------------|
A|-------------------------------------------0---------------------0-------------------|
E|---3-----------------------------------2-------------------2-------------------------|

e|-------------------------------------------------------------------------------------|
B|------------3----3----3------------1p0h1---------------------------------------------|
G|------------2---------2--------------------------0---0-------------------------------|
D|-------0--------------------0----------------2----------------2----------------------|
A|-----------------------------------------3-------------------------------------------|
E|---1---------------------------------------------------------------------------------|

e|-------------------------------------------------------------------------------------|
B|-----------1---1-----3---1---0------------0------------------------------------------|
G|-----------0---------------------2--------0-------0----0-----------------------------|
D|-------1--------------------------------------0-------2----------------2---0---------|
A|-0h2h3---------------0---------------------------------------------2-----------------|
E|------------------------------------------3--------------------0---------------------|

e|-------------------------------------------------------------------------------------|
B|-----------------0---------------------------------------------0h1p0-----------------|
G|--------0---0---------0---0------0-------------------------0h2-------2---------------|
D|--------2-------------1---1------0---------------------0h2---------------------------|
A|----0-----------------3---3------------------------0h2-------------------------------|
E|--------------------------------------3----------------------------------------------|


[Verse 2]

e|-------------------------------------------------------------------------------------|
B|------------3----3----3-------1----0--------3----------------------------------------|
G|------------0----0----0---------------------2-----------2---2------------------------|
D|--------0------------------0-------------------------0-------------------0-----------|
A|-------------------------------------------------0-------------------0---------------|
E|---3----------------------------------------2-------------------2--------------------|

e|-------------------------------------------------------------------------------------|
B|--------------3---3---3-----------1----0-----1------------3---1----------------------|
G|--------------2-------2-----------2----------0--------0---------------------0--------|
D|--------0-------------------0---------------------2--------------------2-------------|
A|---------------------------------------------3--------------------3------------------|
E|---1------------------------------0--------------------------------------------------|

e|-------------------------------------------------------------------------------------|
B|------------1---1---3----1----0------------0--------3--------------------------------|
G|------------0----------------------2-------0------------0----------------------------|
D|-------1----------------------------------------0---------------------2----0---------|
A|---3----------------0--------------------------------------------2-------------------|
E|-------------------------------------------3----------------0------------------------|

e|-------------------------------------------------------------------------------------|
B|-----------------0----------------------------------------0h1p0----------------------|
G|--------0----0-------0----0--------0----------------------------2p0------------------|
D|--------2------------1----1--------0--------------0-----------------2p0--------------|
A|---0-----------------3----3-------------------2-------------------------2------------|
E|------------------------------------------3-----------3------------------------------|


[Chorus]

e|--------3----3----3----3----3----2----0----------------------------------------------|
B|--------1----1----1----1----1----1--------------3------------------------------------|
G|--------0----0-------------------------------------------0---0-------------0---------|
D|-------------2---------------------------------------0----------------0--------------|
A|---3-------------------3---------0--------------2-------------------------------0----|
E|-----------------------------------------------------------------3-------------------|

e|-------------------------------------------------------------------------------------|
B|-----------------------0---------------------------0---------------------------------|
G|-------2----2----2---------2---------0-------------0---------------0-----------------|
D|-------1----1----------------------------------0-------------------------------------|
A|---2-------------------2--------0----------------------------0-----------2-----------|
E|------------------------------------------3-------------3----------------------------|

e|----------3----3----3-----3---3----2----0--------------3---3-------------------------|
B|----------1----1----1-----1---1----1----------3--------------------------------------|
G|----------0----0---------------------------------------------------------------0-----|
D|---------------2-----------------------------------0----------------------4----------|
A|----3---------------------3--------0----------2----------------------2---------------|
E|----------------------------------------------------------------0--------------------|

e|-------------------------------------------------------------------------------------|
B|----0-------------------0---0h3------------------------------------------------------|
G|-------2---2-------2----0------------0h2------------2--------------------------------|
D|-------------------2------------------------------0----------------0---------0-------|
A|----0-------------------0-----------------------------------------------0------------|
E|----------------------------------------------2------------2h3-----------------------|


[Verse 3]

e|-------------------------------------------------------------------------------------|
B|--------------3---3---3---------1----0---------3-------------------------------------|
G|--------------0---0---0------------------------2-----------2---2---------------------|
D|---------0-----------------0---------------------------0----------------0------------|
A|---------------------------------------------------0------------------0---0---0------|
E|----3------------------------------------------2--------------------2-------2--------|

e|-------------------------------------------------------------------------------------|
B|----------------------0h1p0----------------------------0-----------------------------|
G|-------------0---2-----------2----0---------0---------------0------------------------|
D|---------0----------------------------0-----------2-----------------2----------------|
A|--------------------------------------------3----------------------------------------|
E|----1--------------------------------------------------------------------------------|

e|-------------------------------------------------------------------------------------|
B|------------------1---3---1---0-------------0----------------------------------------|
G|-------------0--------------------2---------0-------0---0----------------------------|
D|--------1---------------------------------------0---------------------2----0---------|
A|-0h2h3----------------0-------------------------------------------2------------------|
E|--------------------------------------------3-----------------0----------------------|

e|-------------------------------------------------------------------------------------|
B|-------------------0---------------------------------0h1p0---------------------------|
G|---------0----0--------0---0------0------------------------2p0-----------------------|
D|---------2-------------1---1------0----------------------------2p0-------------------|
A|----0------------------3---3---------------------------------------2p0---------------|
E|-----------------------------------------3-------------------------------------------|


[Chorus]

e|---------3---3---3---3---3---3---3-------5-------------------------------------------|
B|---------3---3---3---3---3---3--------------------3---3------------------------------|
G|-------------------------------------------------------------------------------------|
D|-------------0---------------0----------------0----------------------------0---------|
A|---------------------------------------------------------------------0---------------|
E|----3----------------3-------------------2---------------------2---------------------|

e|-----------------------0h1p0---------------------------------------------------------|
B|---------------3-------------3p1p0----------------------------3---1------------------|
G|---------------2-------------------2p0------------------------0------------------0---|
D|----------0----------------------------3p2p0--------------2-----------------2--------|
A|---------------------------------------------2--------3----------------3-------------|
E|----1--------------2---3-------------------------------------------------------------|

e|-------------------------------------------------------------------------------------|
B|------------1-------------1----1h3----------0-------3--------------------------------|
G|------------0----------------------0h2------0-----------0----------------------------|
D|--------1-------------1-------------------------0----------------------2----0--------|
A|----3-------------3---3--------0----------------------------------2------------------|
E|--------------------------------------------3----------------0-----------------------|

e|------------------------------------------x------------------------------------------|
B|-----1----------------1--------------0----x------------------------------------------|
G|-----0----------------0--------------0----x------------------------------------------|
D|-----1----------------0--------------0----x------------------------------------------|
A|-----0----------------3-------------------x------------------0----2------------------|
E|-------------------------------------3----x---3----3----3----------------------------|


[Chorus]

e|---------3---3---3---3---3---2---0---------------------------------------------------|
B|---------1---1---1---1---1---1--------3----------------------------------------------|
G|---------0---0------------------------0-------0---0--------------0-------------------|
D|-------------2----------------------------0------------------0-----------------------|
A|----3----------------3-------0--------2------------------------------0---------------|
E|--------------------------------------------------------3----------------------------|

e|-------------------------------------------------------------------------------------|
B|------------------------0------------------------------------------------------------|
G|----------2---2---2---------2-------0--------------------------0---------------------|
D|----------1---1----------------------------------0-----------------------------------|
A|----2-------------------2-------0------------2-----------0----------2----------------|
E|-----------------------------------------3-----------3-------------------------------|

e|----------3----3----3---3---3---2---0--------------3----3----------------------------|
B|----------1----1----1---1---1---1---------3------------------------------------------|
G|----------0----0-------------------------------------------------------------0-------|
D|---------------2------------------------------0-------------------------4------------|
A|----3-------------------3-------0---------2------------------------2-----------------|
E|--------------------------------------------------------------0----------------------|

e|-------------------------------------------------------------------------------------|
B|----0--------------------0----0h3----------------------------------------------------|
G|--------2---2-------2----0----------0h2----------------2-----------------------------|
D|--------------------2-----------------------------0------------------0-------0-------|
A|----0--------------------0-----------------------------------------------0-----------|
E|---------------------------------------------2--------------2---3--------------------|


[Verse 4]

e|-------------------------------------------------------------------------------------|
B|--------------3---3---3--------1---0-------3-----------------------------------------|
G|--------------0---0---0--------------------2------------2---2------------------------|
D|---------0-----------------0------------------------0-------------------0------------|
A|------------------------------------------------0-------------------0----------------|
E|----3--------------------------------------2--------------------2--------------------|

e|-------------------------------------------------------------------------------------|
B|-------------3---3---3-----------1p0h1-----------------------------------------------|
G|-------------2-------2--------------------------0---0--------------------------------|
D|--------0----------------0------------------2----------------2-----------------------|
A|----------------------------------------3--------------------------------------------|
E|---1---------------------------------------------------------------------------------|

e|-------------------------------------------------------------------------------------|
B|------------1---1---1---1---0----------0---------------------------------------------|
G|------------0-------0------------2-----0-------0-----0-------------------------------|
D|-------1-----------------------------------0-------2-------------2---0---------------|
A|-0h2h3----------------------0--------------------------------2-----------------------|
E|---------------------------------------3-----------------0---------------------------|

e|-------------------------------------------------------------------------------------|
B|------------------0--------------------------------------0h1p0-----------------------|
G|----------0---0-------0---0-------0------------------0h2-------2p0-------------------|
D|----------2-----------1---1-------0--------------------------------2p0---------------|
A|-----0----------------3---3----------------------------------------------------------|
E|---------------------------------------3---------------------------------------------|


[Outro]

e|-------------------------------------------------------------------------------------|
B|------------------0-------------------------------------1-------0--------------------|
G|---------0----0-------0---0-------0-------------0------------------------------------|
D|---------2------------1---1-------0---------0-------1-------0------------------------|
A|----0-----------------3---3----------------------------------------------------------|
E|---------------------------------------3---------------------------------------------|

e|-------------------------------------------------------------------------------------|
B|------------------0------------------------------------------------------------------|
G|---------0----0--------0---0--------0------------------------------------------------|
D|---------2-------------1---1--------0------------------------------------------------|
A|----0------------------3---3---------------------------------------------------------|
E|------------------------------------------3------------------------------------------|

************************************

| x  Dead note
| h  Hammer-on
| p  Pull-off

************************************

            
            
Suggest correction
Creating personal tab
Creating personal tab
You can edit any tab online and save it as your Personal.

You can edit, replace or remove any tab part or add personal notes – all changes will be seen only by you.

Personal tabs can be accessed anytime from any device, even offline.
Learn more »
comments
print report bad tab
3 comments total.
+1 reply
wm.halma 10 Jun 18, 2013 04:41 AM

Excellent piece of work-just what I needed-thanks and keep them coming please

+1 reply
Dark_Merlin 30 Feb 07, 2014 02:34 PM

Thank you! Was looking for the finger-picking tab having seen this done as a cover on Youtube! Nicely done and accurately laid out :)

+1 reply
merelmica 10 Dec 09, 2014 10:06 AM

very nice tab!! I just love it, amazing!!

guest
You may want to rate the tab now too:
select rating
Wanna post a correction for this tab? Suggest correction