Oops, an error
Loading. Please wait.

Make You Feel My Love Tab

version 2
version 2

Whole song

Interactive

11,368 views 21 this week
no commentswrite comment
1 2 3 4 5
excellent!
x 6
add to favorites
launch autoscroll
font size
0
reset
how to read this tab
guitar tuner
Tab Pro tools
  • play this tab
  • loop segment
  • change instrument
  • show fretboard
  • metronome
×
Best way to learn
"Make You Feel My Love"
Autoscroll
slow
fast
+/-
esc
set tempo
stop
Contributor
Difficulty
Capo
intermediate
3rd fret
Make You Feel My Love
Bob Dylan
Singer - Adele

Fingerstyle arrangement made by - Ulli Boegerhausen
Standard Tuning Capo 3 fret!

FYI: This is my first tab, it has some harder parts. Im sure how i write it down isnt 
exactly in tempo but the notes is 100% accurate. Just watch the video to get the tempo. 
Best of luck!

E ------------3--2---------------------------------------------------|
B ----3--3---3---3--3-------1--1----------1--1----1--1----1h3--------|
G ----0--0--0----2--2-------2--2----0h2---0--0----0--0---0---0h2-----|
D ---------------0-----0h2--3--3---3---3--2--2--0-1--1--1------------|
A --------------------------------3-------3--3----3--3----0----------|
E -------------------------------------------------------------------|

E -------------------------------------------------------------------|
B -0--0----0--1--1---0------------------3-3-3---1-0---3--------------|
G -0--0---0---0--0---0---------0h2--------------------2--2-2---------|
D -0--0--0----1--0---0------0h2-------0-------0---------0------0-----|
A ------------0--3-------0h2---------------------------0------0------|
E -3--3--------------3--------------3-----------------2------2-------|

E -------------------------------------------------------------------|
B -----3-3-3---1p0h1--------------------1-1-1-1--0----0--------------|
G -----2-2-2-----------0-0--------------0-0-0-0----2--0---0-0--------|
D ---0-------0--------2-----2---------1-----------------0--2----2-0--|
A -------------------3---------0-2--3------------0-------------2-----|
E -1--------------------------------------------------3-------0------|

E -------------------------------------------------------------------|
B -------0----------------------0h1p0------3-3-3---1p0--3------------|
G ---0-0---0-0---0-----------0h2-----2-----0-0-0---0----2--2-2-------|
D ---2-----1-1---0--------0h2------------0-------0--------0--------0-|
A -0-------3-3---------0h2-------------------------------0-------0---|
E ------------------3------------------3----------------2------2-----|

E --------------------------------------------------------------------|
B --3-3-3-3-3-1p0---1---1h3p1----------1-1-1h3p1-0----0---0h3---------|
G --2-2-2-2-2-0-----0---0---------0----0---0-------2--0-------0-------|
D ------0---0---------2---------2-----1-----------------0---------2-0-|
A ------------------3---------3-----3------0---------------------2----|
E -1------1---0---------------------------------------3---------0-----|

E ---------------------------------------3-3-3-3-3-2p0----------------|
B -------0----------------0h1p0----------1-1-1-1---1----3-------------|
G ---0-0---0-0--0----0---------2p0-------0-0-0-0--------0--0-0---0----|
D ---2-----1-1--0---0-------------2p0--------2------------0-----0-----|
A -0-------3-3-----------------------2--3------3---0----2-----------0-|
E -----------------3----3--------------------------------------3------|

E -----------------------------------3-3-3-3-3-2p0-----0h3-3---------|
B ---------0-------------------------1-1-1-1---1----3----------------|
G ---2-2-2-0-0h2---0-----0----0------0-0-0-0----------0------------0-|
D ---1-1-1-------------0-----------------2----------4------------4---|
A -2-------3-----0----------0---2---3------3---0----2----------2-----|
E -------------------3-----3---------------------------------0-------|

E --------------------------------------------------------------------|
B -0--------0-0-3--------------------------3-3-3---1p0--3-------------|
G ---2-2--2-0-----0-2-----2----------------0-0-0---0----2----2-2------|
D --------2-------------0-------0---0----3-------0---------0------0---|
A -0--------0---------------------0-----------------------0------0-0--|
E --------------------2-----2-3--------3----------------2-------2---2-|

E -------------------------------------------------------------------|
B ----------0h1p0------------0-----------------1-1h3p1-0----0--------|
G ------0-2------2-0----0------0-------------0---0-------2--0---0-0--|
D ----0--------------0----2-------2---------1-----------------0------|
A 0---------------------3------------0-2--3------0-------------------|
E ---1------------------------------------------------------3--------|

E ------------------------------------------------3-3-3-3-3-3-3--5---|
B ------------------0-----------0h1p0-------------3-3-3-3-3-3-3------|
G -------2-0----0-0---0-0--0----------2p0---------0-0-0-0-0-0-0------|
D -----2--------2-----1-1--0-------------0p2----------0------------0-|
A ---2--------0-------3-3-------------------0p2----------------------|
E -0--------------------------3------------------3------3--------2---|

E ------------------0h1p0--------------------------------------------|
B -3-3----------3--------3p1p0---------------------1-----1-1h3----0--|
G --------------2-------------2p0------------0-----0---0------0h2-0--|
D ---------0---0-----------------3p2p0-----2-----1-----1-------------|
A -------0----------------------------2--3-----3-----3-----0---------|
E -----2------1---2-3---------------------------------------------3--|

E -------------------------------------------3-3-3-3-3-2p0-----------|
B ---0h3------------1--1---0-----------------1-1-1-1---1---3---------|
G -------0----------0--0---0-----------------0-0-0-0-------0---0-0---|
D -0-----------2-0--1--0---0---------------------2-----------0-------|
A -----------2------0--3--------------0-2--3-------3---0---2---------|
E ---------0---------------3--X-3-3-3--------------------------------|

E -----------------------------------------------3-3-3-3-3-2p0-------|
B -----0------------0----------------------------1-1-1-1---1----3----|
G ---0--------2-2-2-0-0h2---0------------0-------0-0-0-0----------0--|
D ------------1-1-1----------------0-----------------2----------4----|
A -3-----0--2-------3-----0------2-----0---2---3-------3---0----2----|
E -----------------------------3-----3-------------------------------|

E -0h3-3-------------------------------------------------------------|
B -----------------0-----0-0-3------------------------3-3-3-3-1p0--3-|
G -------------0-----2-2-0-----0-2-----2--------------0-0-0-0-0----2-|
D -----------4-----------------------0-------0---0--0----------------|
A ---------2-------0-----0---------------------0---------------------|
E -------0--------------------------2----2-3-------3---------------2-|

E -------------------------------------------------------------------|
B -----2-2------------3-3-3---1p0h1------------------------1-1-1-1-0-|
G -----0-0------------2-2-2--------------0-0---------------0-0-0-0---|
D ---0---------0----0-------0----------2-------2---------1-----------|
A -0---------0-----------------------3------------0-2--3-----------0-|
E ---------2------1--------------------------------------------------|

E -------------------------------------------------------------------|
B ----0---0-0-----------------0-------------0h1p0-------------0------|
G -2--0----0--------------0-0---0-0--0---0h2-----2p0------0-0----0-0-|
D ------0----------2-0----2-----1-1--0--------------2p0---2------1-1-|
A ---------------2------0-------3-3---------------------3--------0-0-|
E ----3--------0------------------------3----------------------------|

E -------------------------------------------------------------------|
B --0---------1---0--------0-----------------------------------------|
G --0-----0------------0-0---0-0---0---------------------------------|
D ------0---1---0------2-----1-1---0---------------------------------|
A -------------------0-------3-3-------------------------------------|
E ----3-------------------------------3------------------------------|
comments
print report bad tab
I want to post or [tab]
guest
You may want to rate the tab now too:
select rating
Please do not post tabs as comments. Select "correction" instead!