Oops, an error
Loading. Please wait.

Nothing Else Matters Tab

version 1
version 1

Whole song

Interactive

65,922 views 213 this week
6 commentsread comments
1 2 3 4 5
excellent!
x 19
add to favorites
launch autoscroll
font size
0
reset
how to read this tab
guitar tuner
Autoscroll
slow
fast
+/-
esc
set tempo
stop
Help us to improve Ultimate-Guitar.com Take our survey!
×
Author
Difficulty
intermediate
Title: Nothing Else Matters

Artist: Sungha Jung

Arranged by: Tomi Paldanius

Tabbed by: Ryan R. Gonzales

Location: Rosario, Batangas - Philippines

Tuning: e B G D A E (Standard Tuning)



     E  E  E  E  E  E     E  E  E  E  E  E     E  E  E  E  E  E   
e||--------------------|--------------------|--------------------|
B||-----------0--------|-----------0--------|-----------0--------|
G||-----------0--------|-----------0--------|-----------0--------|
D||--------2-----2-----|--------2-----2-----|--------2-----2-----|
A||-----2-----------2--|-----2-----------2--|-----2-----------2--|
E||--0-----------------|--0-----------------|--0-----------------|


    E  E  E  E  E  S S    E  E  E  S S E  E    
e|---------------------|----------------------|
B|-----------0-----0---|--0--------0----------|
G|-----------0---------|-------------0--------|
D|--------2-----2------|--------2------2------|
A|-----2---------------|-----2----------------|
E|--0------------------|--0---------------3b--|


    E  E  E  E  T  T  S E  E  T  T  S S S    E  E  E  E  E  E   
e|----------------------------------------|-----------0--------|
B|----------------------------------------|--------------1-----|
G|--------4--5--4h-5p-4-2--4--2h-4p-2-----|--------2--------2--|
D|--------2-----2----------2----------2---|--2--2--------------|
A|-----2----------------------------------|--0-----------------|
E|--0-------------------------------------|--------------------|


    E  E  E  E  E  S  S    E  S  S E  E  E  E     E.  S S S T  T  S S S  S    S   
e|-----------0----------|-------------0--------|------------0h-2p-0------2s---3--|
B|--------------1-------|----------------1-----|--------3-----------3---(3)s-(5)-|
G|--------2-------------|----------0--------0--|------2---2-----------0----------|
D|-----2----------------|-----0h-2-------------|--0------------------------------|
A|--0--------------0h-2-|--3-------------------|---------------------------------|
E|----------------------|----------------------|---------------------------------|


    E  E  E  E  E  E     E  E  E  E   E  E     E  E  E  E  E  E   
e|--3--------2--------|--0---------------0--|--------------------|
B|--------5-----5-----|-----5-----3~--------|-----------0--------|
G|-----4-----------4--|--------4------4-----|-----------0--------|
D|--------------------|---------------------|--------2-----2-----|
A|--------------------|---------------------|-----2-----------2--|
E|--0-----------------|---------------------|--0-----------------|


                      |      T  T  T  T  |  T  T  T  T  T  T  |
                      |======19=16=12=12=|==17=16=20=15=17=17=|
    E  E  E  E  E  E     E.  S  S  S  Q.    E  E  E  E  E  E   
e|--------------------|------------------|--------------------|
B|-----------0--------|---------------0--|--------------------|
G|-----------0--------|------------0-----|--------0--------5--|
D|--------2-----2-----|---------4--------|-----4--------5-----|
A|-----2-----------2--|------7-----------|--5--------3--------|
E|--0-----------------|--0---------------|--------------------|


    T   T  T  T     |  T  T  T  T  T  T  |      T  T  T  T  |
  ==19==16=12=12====|==17=16=20=15=17=17=|======19=16=12=12=|
    E.  S  S  S  Q.    E  E  E  E  E  E     E.  S  S  S  Q.      
e|------------------|--------------------|------------------|
B|---------------0--|--------------------|---------------0--|
G|------------0-----|--------0--------5--|------------0-----|
D|---------4--------|-----4--------5-----|---------4--------|
A|------7-----------|--5--------3--------|------7-----------|
E|--0---------------|--------------------|--0---------------|


    T  T  T  T  T  T  T  T  |  T  T  T  T  T  T  T  T  |  T                 |
  ==17=16=20=20=14=16=16=16=|==15=17=17=16=14=16=16=16=|==17================|
    E  S  S  E  E  S  S  E     E  S  S  E  E  S  S  E     E  E  E  E  E  E   
e|--------------------------|--------------------------|-----------0--------|
B|-----------0-----------5--|-----------------------4--|--5-----------------|
G|--------0-----------5-----|-----------4--------4-----|--------0-----0-----|
D|-----4-----------5--------|--------5--------4--------|-----2-----------2--|
A|--5-----------3-----------|-----5--------2-----------|--------------------|
E|--------------------------|--3-----------------------|--------------------|


    E  E  E  E  E  E     E.  S S  S E.  S E     S  S E  E  E  S  S S S  
e|--------------------|----------------------|-------------------------|
B|-----------0--------|----------------------|-------------------------|
G|-----------0--------|----------------------|---------------------0---|
D|--------2-----2-----|--------0h-2-2-----2--|--4p-2-2--------0h-2---2-|
A|-----2-----------2--|------2----------2----|--5-------5--3-----------|
E|--0-----------------|--0-------------------|-------------------------|


                                                          ^              
    E.  S S  S E.  S E     E  S S  E  E  S  S S S    Q    S S E  E   E   
e|----------------------|-------------------------|---------------------|
B|----------------------|-------------------------|---------------------|
G|----------------------|---------------------0---|-------0-0-0---------|
D|--------0h-2-2-----2--|-------0h-2-----0h-2---2-|-------2------4p--2--|
A|------2----------2----|--5--5-------3-----------|-------2-------------|
E|--0-------------------|--5----------------------|--0------------------|


    E  S S  E  E  S  S S S    E  S S E  E  S E   S     E   E  E  E  E  E   
e|-------------------------|------------------------|------------0--------|
B|-------------------------|------------------------|---------------0-----|
G|---------------------0---|---------0-------0------|---------0--------0--|
D|-------0h-2-----0h-2---2-|-------0----4--4--------|--4s--2--------------|
A|--5--5-------3-----------|-----2------6-------(0)-|---------------------|
E|--5----------------------|--3---------7-----------|--0------------------|


    E  E  E  E  E  E     E.  S S  S E.  S E     S  S E  E  E  S  S S S  
e|--------------------|----------------------|-------------------------|
B|-----------3--------|----------------------|-------------------------|
G|--------0-----0-----|----------------------|---------------------0---|
D|-----4-----------4--|--------0h-2-2-----2--|--4p-2-2--------0h-2---2-|
A|--------------------|------2----------2----|--5-------5--3-----------|
E|--0-----------------|--0-------------------|-------------------------|


    E.  S S  S E.  S E     E  S S  E  E  S  S S S    E   E   E  S S  E   E   
e|----------------------|-------------------------|-------------------------|
B|----------------------|-------------------------|-------------------------|
G|----------------------|---------------------0---|-------------------------|
D|--------0h-2-2-----2--|-------0h-2-----0h-2---2-|------9p--7--5-----------|
A|------2----------2----|--5--5-------3-----------|-----10------7----9p--7--|
E|--0-------------------|--5----------------------|--0--------------10------|


     E  S E  S E  S S S S    E  S S E  E  S E   S     E   E  E  E  E  E   
e|------------------------|------------------------|------------0--------|
B|------------------------|------------------------|---------------0-----|
G|--------0-----------0---|---------0-------0------|---------0--------0--|
D|------------------0---0-|-------0----4--4--------|--4s--2--------------|
A|---9--9----0----7-------|-----2------6-------(0)-|---------------------|
E|--10---------8----------|--3---------7-----------|--0------------------|


                              ^                                      
    E  E  E  E  E  E     Q    S S E  E  E     E  S E  S E  S  S S S  
e|--------------------|--------------------|------------------------|
B|-----------3--------|--------------------|-----0------------------|
G|--------0-----0-----|-------0-0-0-----0--|--2----0------------0---|
D|-----4-----------4--|-------2------2-----|--4-------0----0h-2---2-|
A|--------------------|-------2------------|--5---------3-----------|
E|--0-----------------|--0-----------------|------------------------|


         ^                                              ^              
    Q    S S E  E   E     E  S E  S E  S  S S S    Q    S S E  E   E   
e|---------------------|------------------------|---------------------|
B|---------0-0---------|-------0----------------|---------------------|
G|-------0------2p--0--|--2--2--------------0---|-------0-0-0---------|
D|-------2-------------|--4-------0----0h-2---2-|-------2------4p--2--|
A|-------2-------------|--5---------3-----------|-------2-------------|
E|--0------------------|------------------------|--0------------------|


    E  S E  S E  S  S S S    E  S S E  E  S E   S      E  E  E  E  E  E   
e|------------------------|-------------------------|-----------0--------|
B|------------------------|-------------------------|--------------0-----|
G|-------0------------0---|---------0-------0-------|--------0--------0--|
D|--4--4----0----0h-2---2-|-------0----4--4---------|--4-----------------|
A|--5---------3-----------|-----2------6-------(0)h-|-----7--------------|
E|------------------------|--3---------7------------|--0-----------------|


    E  S S S S E  S S S S    E  S E  S   E  S E   S    E  S E   S E  S S S S  
e|---------0----------0---|-------------------------|-----3--------------0---|
B|-------1----------0-----|--7----7----7g8--7-5h--7-|--7----5~---------0-----|
G|-----0-----0----6-----0-|--7----7------7--7-7-----|-----------0----6-----0-|
D|------------------------|--0--0-0--0---0--0-0-----|------------------------|
A|--3----------0----------|-------------------------|--3----------0----------|
E|------------------------|-------------------------|------------------------|


    E  S E  S   E  S E   S    E  S E   S E  S S S S    E  S E  S   E  S E   S  
e|-------------------------|-----3--------------0---|-------------------------|
B|--7----7----7g8--7-5h--7-|--7----5~---------0-----|--7----7----7g8--7-5h--7-|
G|--7----7------7--7-7-----|-----------0----6-----0-|--7----7------7--7-7-----|
D|--0--0-0--0---0--0-0-----|------------------------|--0--0-0--0---0--0-0-----|
A|-------------------------|--3----------0----------|-------------------------|
E|-------------------------|------------------------|-------------------------|


                             ^   v ^                            
    E  S E   S E  S S S S    E.  S S  S     E   E  E  E  E  E   
e|-----3--------------0---|--2---2-2-----|--2p--0-----0--------|
B|--7----5~---------0-----|--3---3-3-----|---------------0-----|
G|-----------0----6-----0-|--2-----2-(0)-|---------0--------0--|
D|------------------------|--0-----------|---------------------|
A|--3----------0----------|--------------|---------------------|
E|------------------------|--------------|--0------------------|


                         PM PM   PM      PM PM   PM       
    E  E  E  E  E  E     S  S  S S  S  S S  S  S S  S  S  
e|-----------0--------|----------------------------------|
B|--------0-----0-----|----------------------------------|
G|-----0-----------0--|----------------------------------|
D|--------------------|--------2----0h-2-------2----2s-4-|
A|--------------------|-----2---------------2------------|
E|--0-----------------|--0-------0-------0-------0-------|


                                   PM PM   PM      PM PM           
    S  S E  E  S  S S S T  T  S    S  S  S S  S  S S  S  S S S  S  
e|------------------------------|---------------------------------|
B|------------------------------|---------------------------------|
G|--------------------0---------|---------------------------------|
D|--4p-2-2----------0-----------|--------2----0h-2-------2---2p-0-|
A|--5-------5--0h-3-------------|-----2---------------2-----------|
E|----------------------2h-3p-2-|--0-------0-------0-------0------|


    E  S S  E  S  S S S  S  S    E    E  S S S S S S S S  
e|----------------------------|--------------------------|
B|----------------------------|--------------------------|
G|--------------------0-------|--------------------------|
D|-------0h-2-------0-------0-|-----4g5--5---5---4---2---|
A|--5--5-------0h-3-----(3)---|-----6g7----7---7---7---5-|
E|--5-------------------------|--0-----------------------|


    E  S S  E  E  S  S S S    E  S S E  E  S E   S     E   E  E  E  E  E   
e|-------------------------|------------------------|------------0--------|
B|-------------------------|------------------------|---------------0-----|
G|---------------------0---|---------0-------0------|---------0--------0--|
D|-------0h-2-----0h-2---2-|-------0----4--4--------|--4s--2--------------|
A|--5--5-------3-----------|-----2------6-------(0)-|---------------------|
E|--5----------------------|--3---------7-----------|--0------------------|


    ^   v   v  ^    v   v                                                     
    E.  E   S  E.   E   S    E  S E  S   E  S E   S    E  S E   S E  S S S S  
e|--0---0---0--0----0---0-|-------------------------|-----3--------------0---|
B|--1---1---1--0----0---0-|--7----7----7g8--7-5h--7-|--7----5~---------0-----|
G|--0---0--(0)-2---(2)--2-|--7----7------7--7-7-----|-----------0----6-----0-|
D|--2---2------2--------2-|--0--0-0--0---0--0-0-----|------------------------|
A|--3---3------0----------|-------------------------|--3----------0----------|
E|------------------------|-------------------------|------------------------|


    E  S E  S   E  S E   S    E  S E   S E  S S S S    E  S E  S   E  S E   S  
e|-------------------------|-----3--------------0---|-------------------------|
B|--7----7----7g8--7-5h--7-|--7----5~---------0-----|--7----7----7g8--7-5h--7-|
G|--7----7------7--7-7-----|-----------0----6-----0-|--7----7------7--7-7-----|
D|--0--0-0--0---0--0-0-----|------------------------|--0--0-0--0---0--0-0-----|
A|-------------------------|--3----------0----------|-------------------------|
E|-------------------------|------------------------|-------------------------|


                             ^   v ^                            
    E  S E   S E  S S S S    E.  S S  S     E   E  E  E  E  E   
e|-----3--------------0---|--2---2-2-----|--2p--0-----0--------|
B|--7----5~---------0-----|--3---3-3-----|---------------0-----|
G|-----------0----6-----0-|--2-----2-(0)-|---------0--------0--|
D|------------------------|--0-----------|---------------------|
A|--3----------0----------|--------------|---------------------|
E|------------------------|--------------|--0------------------|


    E  E  E  E  E  E     E  E  E  E  E  E     E  E  E  E   E  E   
e|-----------0--------|--3--------5--------|--7--------8---------|
B|--------0-----0-----|-----5--------7-----|-----8--------10-----|
G|-----0-----------0--|--------4--------4--|--------9---------9--|
D|--------------------|--------------------|---------------------|
A|--------------------|--------------------|---------------------|
E|--0-----------------|--0-----------------|--0------------------|


    E  E  E  E  E  E     E  E  E  E  E  E     E  E  Q    E  E   
e|--8--------8--------|-----------8--------|--0----------0-----|
B|-----5--------5-----|--------5-----5-----|-----1----------1--|
G|--------5--------5--|-----5-----------5--|--------0----------|
D|--------------------|--------------------|-------------------|
A|--0-----------------|--0-----------------|--3----------------|
E|--------------------|--------------------|-------------------|


    E  E  Q    E  E     S  S E  E  S  S E  E     E  E  E  E  E  E   
e|--0----------0-----|--0h-7-------7p-0-------|-----------0--------|
B|-----3----------3--|-------0----------0-----|--------0-----0-----|
G|--------2----------|----------0----------0--|-----0-----------0--|
D|--0----------------|------------------------|--------------------|
A|-------------------|------------------------|--------------------|
E|-------------------|--0---------------------|--0-----------------|


    E  E  E  E  E  E     E  E  E  E   E  E     E  E  E  E  E  E   
e|--3--------5--------|--7--------8---------|--8--------8--------|
B|-----5--------7-----|-----8--------10-----|-----5--------5-----|
G|--------4--------4--|--------9---------9--|--------5--------5--|
D|--------------------|---------------------|--------------------|
A|--------------------|---------------------|--0-----------------|
E|--0-----------------|--0------------------|--------------------|


    E  E  E  E  E  E     E  E  Q    E  E     E  E  Q    E  E   
e|-----------8--------|--0----------0-----|--0----------0-----|
B|--------5-----5-----|-----1----------1--|-----3----------3--|
G|-----5-----------5--|--------0----------|--------2----------|
D|--------------------|-------------------|--0----------------|
A|--0-----------------|--3----------------|-------------------|
E|--------------------|-------------------|-------------------|


    S  S E  E  S  S E  E     E  E  E  E  E  E   
e|--0h-7-------7p-0-------|-----------0--------|
B|-------0----------0-----|--------0-----0-----|
G|----------0----------0--|-----0-----------0--|
D|------------------------|--------------------|
A|------------------------|--------------------|
E|--0---------------------|--0-----------------|


    PM PM   PM      PM PM   PM                                      
    S  S  S S  S  S S  S  S S  S  S    S  S E  E  S  S S S T  T  S  
e|----------------------------------|------------------------------|
B|----------------------------------|------------------------------|
G|----------------------------------|--------------------0---------|
D|--------2----0h-2-------2----2s-4-|--4p-2-2----------0-----------|
A|-----2---------------2------------|--5-------5--0h-3-------------|
E|--0-------0-------0-------0-------|----------------------2h-3p-2-|


    PM PM   PM      PM PM                                     
    S  S  S S  S  S S  S  S S S  S    E  S S  E  E  S  S S S  
e|---------------------------------|-------------------------|
B|---------------------------------|-------------------------|
G|---------------------------------|---------------------0---|
D|--------2----0h-2-------2---2p-0-|-------0h-2-----0h-2---2-|
A|-----2---------------2-----------|--5--5-------3-----------|
E|--0-------0-------0-------0------|--5----------------------|


        NH   NH  NH  NH  NH   NH        NH                           
    S   S    S   S   S   S    E    E    E      E  S E  S E  S S S S  
e|-----------------------------------------|------------------------|
B|--------<>12-----------------------------|------------------------|
G|-------------------------<>12p--11-------|--------0-----------0---|
D|-----------------<>7---------------------|------------------0---0-|
A|----<>7------<>7-----<>7------------<>7--|---9--9----0----7-------|
E|--0--------------------------------------|--10---------8----------|


                               ^                                       
    E  S S E  E  S E   S       E  E  E  E  E  E     E  E  E  E  E  E   
e|------------------------|----------------------|--------------------|
B|------------------------|-------------0--------|--------------------|
G|---------0-------0------|--2g4-----------------|-----------4--------|
D|-------0----4--4--------|----2-----2-----2-----|--------2--2--2-----|
A|-----2------6-------(0)-|----2--2-----------2--|-----2-----------2--|
E|--3---------7-----------|----0-----------------|--0-----------------|


         ^                                             ^              
    Q    S S E  E  E     E  S E  S E  S  S S S    Q    S S E  E.   S  
e|--------------------|------------------------|-------0-0-0---------|
B|--------------------|-----0------------------|-------0------3p---0-|
G|-------0-0-0-----0--|--2----0------------0---|-------0-------------|
D|-------2------2-----|--4-------0----0h-2---2-|---------------------|
A|-------2------------|--5---------3-----------|---------------------|
E|--0-----------------|------------------------|--0------------------|


                                      ^                                       
    E   S E    S  E  S  S S S    Q    S S E  E.   S    E  S E  S E  S  S S S  
e|----------------------------|---------------------|------------------------|
B|------0-1~------------------|---------------------|------------------------|
G|--2~----0---(0)---------0---|-------0-0-0---------|-------0------------0---|
D|--0----------------0h-2---2-|-------2------4p---2-|--4--4----0----0h-2---2-|
A|----------------3-----------|-------2-------------|--5---------3-----------|
E|----------------------------|--0------------------|------------------------|


                               ^                    ^   v   v  ^    v   v  
    E  S S E  E  S E   S       E  E  E  E  E  E     E.  E   S  E.   E   S  
e|------------------------|----------------------|--0---0---0--0----0---0-|
B|------------------------|-------------0--------|--1---1---1--0----0---0-|
G|---------0-------0------|--2g4-----------------|--0---0--(0)-2---(2)--2-|
D|-------0----4--4--------|----2-----2-----2-----|--2---2------2--------2-|
A|-----2------6-------(0)-|----2--2-----------2--|--3---3------0----------|
E|--3---------7-----------|----0-----------------|------------------------|


    ^   v   v  ^  ^ ^  v    ^         v ^   v  v    ^   v   v  ^  ^ ^  v  
    E.  E   S  E  S E  S    E  S  S S S E.  E  S    E.  E   S  E  S E  S  
e|--2---2---2h-3--2-0--2-|--2--3p-0-----0--------|--2---2---2h-3--2-0--2-|
B|--3---3---3--3--3-3--3-|--0-----------0---0--0-|--3---3---3--3--3-3--3-|
G|--2---2--(2)-2--2-2--2-|--0---------2-2---2--2-|--2---2--(2)-2--2-2--2-|
D|--0----------0--0-0--0-|----------x-2-2---2--2-|--0----------0--0-0--0-|
A|-----------------------|--3-------x-0-0--------|-----------------------|
E|-----------------------|----------x------------|-----------------------|


    ^         v ^   v  v    ^   v   v  ^  ^ ^  v    ^         v ^   v  v  
    E  S  S S S E.  E  S    E.  E   S  E  S E  S    E  S  S S S E.  E  S  
e|--2--3p-0-----0--------|--2---2---2h-3--2-0--2-|--2--3p-0-----0--------|
B|--0-----------0---0--0-|--3---3---3--3--3-3--3-|--0-----------0---0--0-|
G|--0---------2-2---2--2-|--2---2--(2)-2--2-2--2-|--0---------2-2---2--2-|
D|----------x-2-2---2--2-|--0----------0--0-0--0-|----------x-2-2---2--2-|
A|--3-------x-0-0--------|-----------------------|--3-------x-0-0--------|
E|----------x------------|-----------------------|----------x------------|


    ^   v   v  ^  ^ ^  v    ^         v ^   v  v    ^   v  v  
    E.  E   S  E  S E  S    E  S  S S S E.  E  S    E.  E  S  
e|--2---2---2h-3--2-0--2-|--2--3p-0-----0--------|--2---2--2-|
B|--3---3---3--3--3-3--3-|--0-----------0---0--0-|--3---3--3-|
G|--2---2--(2)-2--2-2--2-|--0---------2-2---2--2-|--2---2----|
D|--0----------0--0-0--0-|----------x-2-2---2--2-|--0--------|
A|-----------------------|--3-------x-0-0--------|-----------|
E|-----------------------|----------x------------|-----------|


     ^    ^    ^    ^    ^    ^      ^  ^  ^   ^    ^    ^    
     E    E    E    E    E    E      E  E  E   E    E    E    
e|--(0)--(0)--(0)--(0)--(0)--(0)--|--0--0--0---0-------------|
B|---0----0----0----0----0----0---|--0--0--0---0----0--------|
G|---0----0----0----0----0----0---|--0--0--0---0----0----0---|
D|---2----2----2----2----2----2---|--2--2--2---2----2----2---|
A|---2----2----2----2----2----2---|--2--2--2---2----2----2---|
E|---0----0----0----0----0----0---|--0--0--0--(0)--(0)--(0)--|


      Q    S S E.  S S  S     S  S S  S S  S E  S  S S S  
e|--1g7----7-5-3-----3-----|--2h-3-2p-0-2p-0-------------|
B|--2g8----8-7-5-----5-----|--3----3----3----------------|
G|-----------------0---(0)-|-------------------------0---|
D|-------------------------|--0-----------------0h-2---2-|
A|-------------------------|-----------------3-----------|
E|----0--------0-----------|-----------------------------|


      E  S S S S E   S S T  T  S    S S S S S  S E  S  S S S  
e|-----------0---3b--0-----------|---------------------------|
B|-------3---------------3p-2p-0-|---------------------------|
G|--2g4----4---4-------0---------|--2---2---2p-1-0-------0---|
D|-------------------------------|--0---------------0h-2---2-|
A|-------------------------------|---------------3-----------|
E|----0--------------------------|---------------------------|


                                   |--3--|                       
  E  T  T  S E  E  T  T  S E     S T  T  T S S  S S E  S  S S S  
--3--2h-3p-2----3--2h-3p-2-5--|--3-2h-3p-2-0--------------------|
-------------0----------------|--------------0h-3-0-------------|
------------------------------|-----------------------------0---|
------------------------------|--0---------------------0h-2---2-|
------------------------------|---------------------3-----------|
--0---------------------------|---------------------------------|


    E  S S E  E  S E   S     E   E  E  E  E  E     E  E  E  E  E  E   
e|------------------------|------------0--------|-----------0--------|
B|------------------------|---------------0-----|--------0-----0-----|
G|-------0-0-------0------|---------0--------0--|-----0-----------0--|
D|-----0------4--4--------|--4s--2--------------|--------------------|
A|------------6-------(0)-|---------------------|--------------------|
E|--0---------7-----------|--0------------------|--0-----------------|


    E  E  E  E  E  E     E  E  E  E  E  E     E.  S S  S E.  S E    
e|-----------0--------|-----------0--------|-----------------------|
B|--------0-----0-----|--------0-----0-----|-----------------------|
G|-----0-----------0--|-----0-----------0--|-----------------------|
D|--------------------|--------------------|--------0h-2-2-----2s--|
A|--------------------|--------------------|------2----------2-----|
E|--0-----------------|--0-----------------|--0--------------------|


    S  S E  E  E  S  S S S    E.  S S  S E.  S E     E  S S  E  E  S  S S S  
e|-------------------------|----------------------|-------------------------|
B|-------------------------|----------------------|-------------------------|
G|---------------------0---|----------------------|---------------------0---|
D|--4p-2-2--------0h-2---2-|--------0h-2-2-----2--|-------0h-2-----0h-2---2-|
A|--5-------5--3-----------|------2----------2----|--5--5-------3-----------|
E|-------------------------|--0-------------------|--5----------------------|


         ^                                                                
    Q    S S E  E.   S    E  S E  S E  S  S S S    E  S S E  E  S E   S   
e|---------------------|------------------------|------------------------|
B|---------------------|------------------------|------------------------|
G|-------0-0-0---------|-------0------------0---|---------0-------0------|
D|-------2------4p---2-|--4--4----0----0h-2---2-|-------0----4--4--------|
A|-------2-------------|--5---------3-----------|-----2------6-------(0)-|
E|--0------------------|------------------------|--3---------7-----------|


    E   E  E  E  E  E     E  E  E  E  E  S S    E  E  E  S  S E  E   
e|------------0--------|-----------------7---|--7--------7p-0-------|
B|---------------0-----|-----------3---------|--------0-------0-----|
G|---------0--------0--|--------0-----0------|-----0-------------0--|
D|--4s--2--------------|-----4---------------|----------------------|
A|---------------------|---------------------|----------------------|
E|--0------------------|--0------------------|--0-------------------|


    E  E  E  E  T  T  S E  E  T  T  S S S    E  E  E  E  E  E   
e|--------7--8--7h-8p-7-5--7--5h-7p-5-0---|--0--------0--------|
B|----------------------------------------|--------0-----0-----|
G|-----0----------------------------------|-----0-----------0--|
D|----------------------------------------|--------------------|
A|----------------------------------------|--------------------|
E|--0-------------------------------------|--0-----------------|


    E  E  E  E  E  S S    E  E  E  S  S E  E   
e|-----------0-----7---|--7--------7p-0-------|
B|--------0-----0------|--------0-------0-----|
G|-----0---------------|-----0-------------0--|
D|---------------------|----------------------|
A|---------------------|----------------------|
E|--0------------------|--0-------------------|


    E  E  E  E  T  T  S E  E  T  T  S S S    E  E  E  E  E  E   
e|--------7--8--7h-8p-7-5--7--5h-7p-5-0---|--0--------0--------|
B|----------------------------------------|--------0-----0-----|
G|-----0----------------------------------|-----0-----------0--|
D|----------------------------------------|--------------------|
A|----------------------------------------|--------------------|
E|--0-------------------------------------|--0-----------------|


    E  E  E  E  E  S S    E  E  E  S S E  E   
e|-----------0-----7---|--7--------7-0-------|
B|--------0-----0------|--------0------0-----|
G|-----0---------------|-----0------------0--|
D|---------------------|---------------------|
A|---------------------|---------------------|
E|--0------------------|--0------------------|


    E  E  E  E  T  T  S E  E  T  T  S S S    E  E  E  E  E  E    
e|--------7--8--7h-8p-7-5--7--5h-7p-5-0---|--0--------0--------||
B|----------------------------------------|--------0-----0-----||
G|-----0----------------------------------|-----0-----------0--||
D|----------------------------------------|--------------------||
A|----------------------------------------|--------------------||
E|--0-------------------------------------|--0-----------------||
 

************************************

| x    Dead note
| g    Grace note
| (n)  Ghost note
| h    Hammer-on
| p    Pull-off
| b    Bend
| ~    Vibrato
| s    Legato slide 

************************************
Suggest correction
comments
print report bad tab
6 comments total. Showing first comments.
+1 reply
Thestupidlowlif 18 wrote on October 15 2012, 01:50 pm

It's actually arranged by Tomi Paldanius.

0 reply
adellopo 10 wrote on May 12 2014, 06:23 pm

i'm new at reading tabs, it takes me so much time to figure out the best position to use with my left hand, any tips pls ?

+1 reply
Ranso28 47 wrote on May 13 2014, 07:34 pm

With tabs I would say a lot of it is just going through the song and figuring it out how it best suits you. Other wise I would try and think in terms of chord positions if that helps, and be as efficient as you can with your "fingering" i.e. use all your fingers when possible and think what position change will come next.

At the end of the day everyones different so its all open to interpretation :)

guest
You may want to rate the tab now too:
select rating
Wanna post a correction for this tab? Suggest correction