Oops, an error
Loading. Please wait.

Payphone Tab

version 1
version 1

Whole song

Interactive

177,731 views 192 this week
10 commentsread comments
1 2 3 4 5
accurate
x 20
add to favorites
launch autoscroll
font size
0
reset
how to read this tab
guitar tuner
Autoscroll
slow
fast
+/-
esc
set tempo
stop
Help us to improve Ultimate-Guitar.com Take our survey!
×
Contributor
Tuning
Capo
D A D G B E
2nd fret
Payphone - Maroon 5 arr. Sungha Jung

Capo 2nd fret
Drop D tuning.

I have my suspicions that Sungha tunes the G string to A. This works well
too (less awkward) so just so just transpose the entire string down a tone
(2 frets)...otherwise here's a standard tuned version


[Intro]

 Main chords that you hold
E|-----------7-----------------------------------------------------0--------------------|
B|-----------7------------------2--------2-------------------------0--------------------|
G|-----------7------------------2--------2-------------------------1--------------------|
D|-----------0------------------2--------4-------------------------0--------------------|
A|------------------------------0--------0-------------------------2--------------------|
D|---------------------------------------4-------------------------2--------------------|

 So when plucked...
E|------0---5/7----5-----5-4-0--------------------------------------------|-----|
B|--2-3-------7----5-----------3----2-----3-2----3---2---0-----2-0------0-|-----|
G|---------------7------------------2---------2------------4-2----------1-|---2-|
D|--------------0-----------------2--------------------4------------------|-----|
A|-------------------------------0------------------------------------2---|-----|
D|------------------------------------------------4----------------2------|-----|


[Verse]

Main chords that you hold

E|---5------------------5------------------0---------------------------------------------|
B|---5------------------5------------------2--------------------0------------------------|
G|---6------------------6------------------4--------------------4------------------------|
D|---7------------------7------------------4--------------------2------------------------|
A|---0------------------0------------------0--------------------2------------------------|
D|---0-------------------------------------4--------------------2------------------------|

So when plucked... (approx.)

E|-------------------------------------------------------0-0-0-----------------------------------------|
B|-------5-5-5--------------------5-5-5------------------2-2-2--2-2-2----------------5-5-5-------------|
G|-------6-6-6--6-6-6-------------6-6-6--6-6-6------------------4-4-4----------------4-4-4--4-4-4--2---|
D|--------------7-7-7--7--------7--------7-7-7--7------4---------------4--------------------2-2-2------|
A|-----0---------------------0----------------------------------------------------2--------------------|
D|---0-----------------------------------------------4--------------------------2----------------------|

E|-------------------------------------------------------0-0-0-------------------------------------|
B|-------5-5-5--------------------5-5-5------------------2-2-2--2-2-2--0---------3-2-0--3-2-0------|
G|-------6-6-6--6-6-6-------------6-6-6--6-6-6---------4--------4-4-4--4---------2-2-2--2-2-2------|
D|--------------7-7-7--7--------7--------7-7-7--7--------------------------------------------------|
A|-----0---------------------0------------------------------------------------------4------4-------|
D|---0-----------------------------------------------4---------------------------2----- 2----------|


E|-------------------------------------------------------------------------------------0--|
B|---2---2---2--2-2-0-----2---2---2--2-2-0-----2---2----2--2-2-3-------0---0----0---------|
G|---2---2---2--2-2-------2---2-2-2--2-2-------2---2----2--2-2---------2---2----1--2-2----|
D|---------0----------------2------------------------4-----------------------2------------|
A|-----0------------------0----------------------4-----------------------2----------------|
D|---0-----------------------------------------4-----------------------2------------------|(x2)
Suggest correction new What's this?
You can suggest a correction to this tab. Community and Mods will review your correction and vote to approve or reject it.
comments
print report bad tab
10 comments total. Showing first comments. show 1 bad comment
+1 reply
Knight_Zero217 529 wrote on July 7 2012, 08:39 am

have u tried Dsus tuning ?

0 reply
guitarhero_15 93 wrote on July 24 2012, 06:54 am

its better than nothing men....if u want the full tabs, then u make it!

guest
You may want to rate the tab now too:
select rating
Please do not post tabs as comments. Select "correction" instead!