Oops, an error
Loading. Please wait.

Pirates Of The Caribbean Tab

version 1
version 1

Whole song

Interactive

177,670 views 570 this week
2 commentsread comments
1 2 3 4 5
excellent!
x 48
add to favorites
launch autoscroll
font size
0
reset
how to read this tab
guitar tuner
Autoscroll
slow
fast
+/-
esc
set tempo
stop
Help us to improve Ultimate-Guitar.com Take our survey!
×
Author
Difficulty
Tuning
intermediate
D A D G B E
Title: Pirates Of The Caribbean

Artist: Sungha Jung

Arranged by: Wolfgang Vrecun

Tabbed by: Ryan R. Gonzales

Location: Rosario, Batangas - Philippines

Tuning: e B G D A D (Drop D)


     PM   PM PM PM PM    PM   PM PM PM PM    PM   PM PM PM PM
     Q    E  E  E  E     Q    E  E  E  E     Q    E  E  E  E
E||-------------------|-------------------|-------------------|
B||-------------------|-------------------|-------------------|
G||-------------------|-------------------|-------------------|
D||--0----0--0--0--0--|--0----0--0--0--0--|--0----0--0--0--0--|
A||-------------------|-------------------|-------------------|
D||-------------------|-------------------|-------------------|


    PM   PM
    Q    Q    E  E     Q    E  E  E  E     Q    E  E  E  E     Q    E  E  E  E
E|------------------|----------------0--|--1----1-----1--3--|--0----0-----------|
B|---------------1--|--3----3-----3-----|-------------------|-------------3--1--|
G|------------2-----|-------------------|-------------------|-------------------|
D|--0----0----------|--0-------0--------|-------------------|-------------------|
A|------------------|-------------------|--1-------1--------|--3-------3--------|
D|------------------|-------------------|-------------------|-------------------|


    E   E  E  E  E  E     Q    E  E  E  E     Q    E  E  E  E
E|---------------------|----------------0--|--1----1-----1--3--|
B|--1h--3-----------1--|--3----3-----3-----|-------------------|
G|---------------2-----|-------------------|-------------------|
D|--0------0--0--------|--0-------0--------|-------------------|
A|---------------------|-------------------|-------------------|
D|---------------------|-------------------|--3-------3--------|


    Q    E  E  E  E     E   E  E  E  E  E     Q    E  E  E  E
E|--0----0-----------|---------------------|----------------0--|
B|-------------3--1--|--1h--3-----------1--|--3----3-----3-----|
G|-------------------|---------------2-----|-------------------|
D|-------------------|--0------0--0--------|--0-------0--------|
A|--3-------3--------|---------------------|-------------------|
D|-------------------|---------------------|-------------------|


    Q    E  E  E  E     Q    E  E  E  E     Q    E  E  E  E
E|--3----3-----3--5--|--6----6-----5--3--|--5-------------0--|
B|-------------------|-------------------|-------3-----3-----|
G|-------------------|-------------------|-------------------|
D|-------------------|-------------------|--0-------0--------|
A|-------------------|--0-------0--------|-------------------|
D|--5-------5--------|-------------------|-------------------|


                                             ^                 ^
    Q    E  E  E   E     E  E  Q    E  E     Q.     Q    E     H        E  E
E|--1----1-----3s--5--|--5-------------1--|--0------0----1--|--0--------------|
B|--------------------|-----3-------3-----|--2--------------|--2-----------1--|
G|--------------------|-------------------|--2--------------|--2--------2-----|
D|--------------------|-------------------|--2--------------|--2--------------|
A|--1-------1---------|--0-----0----------|--0--------------|--0--------------|
D|--------------------|-------------------|-----------------|-----------------|


    Q    E  E  E  E     Q    E  E  E  E     Q    E  E  E  E
E|----------------0--|--1----1-----1--3--|--0----0-----------|
B|--3----3-----3-----|-------------------|-------------3--1--|
G|-------------------|-------------------|-------------------|
D|--0-------0--------|-------------------|-------------------|
A|-------------------|--1-------1--------|--3-------3--------|
D|-------------------|-------------------|-------------------|


    E   E  E  E  E  E     Q    E  E  E  E     Q    E  E  E  E
E|---------------------|----------------0--|--1----1-----1--3--|
B|--1h--3-----------1--|--3----3-----3-----|-------------------|
G|---------------2-----|-------------------|-------------------|
D|--0------0--0--------|--0-------0--------|-------------------|
A|---------------------|-------------------|-------------------|
D|---------------------|-------------------|--3-------3--------|


    Q    E  E  E  E     E   E  E  E  E  E     Q    E  E  E  E
E|--0----0-----------|---------------------|----------------0--|
B|-------------3--1--|--1h--3-----------1--|--3----3-----3-----|
G|-------------------|---------------2-----|-------------------|
D|-------------------|--0------0--0--------|--0-------0--------|
A|--3-------3--------|---------------------|-------------------|
D|-------------------|---------------------|-------------------|


    Q    E  E  E  E     Q    E  E  E  E     Q    E  E  E  E
E|--3----3-----3--5--|--6----6-----5--3--|--5-------------0--|
B|-------------------|-------------------|-------3-----3-----|
G|-------------------|-------------------|-------------------|
D|-------------------|-------------------|--0-------0--------|
A|-------------------|--0-------0--------|-------------------|
D|--5-------5--------|-------------------|-------------------|


    Q    E  E  E   E     E  E  Q    E  E     Q    E  E  E  E     Q    Q    Q
E|--1----1-----3s--5--|--5-------------1--|--0----0-----------|------------0----|
B|--------------------|-----3-------3-----|-------------3--1--|--3----3----1----|
G|--------------------|-------------------|-------------------|-----------------|
D|--------------------|-------------------|-------------------|--0----0---------|
A|--1-------1---------|--0-----0----------|-------------------|------------3----|
D|--------------------|-------------------|--0-------0--------|-----------------|


                        ^                                  ^
    Q    Q    E   E     H        E  E     H        Q       H        E  E
E|--1----1----3s--5--|--5--------------|----------------|--6--------------|
B|--3----3-----------|--2--------5--2--|----------------|--3--------6--3--|
G|-------------------|--2--------------|--2--------x----|--3--------------|
D|-------------------|--2--------------|-----------x----|--3--------------|
A|--1----1-----------|--0--------------|--0--------x----|--0--------------|
D|-------------------|-----------------|----------------|-----------------|


                     ^    v    ^       ^
    H        Q       Q    Q    Q       H        Q       Q    Q    Q
E|----------------|--0----0----0----|--0--------x----|--5----5----5----|
B|----------------|--2----2----3----|--2--------x----|--6----6----6----|
G|--3--------x----|--2----2----3----|--2-------------|-----------------|
D|-----------x----|--2----2----3----|--2--------x----|--0----0----0----|
A|--0--------x----|--0---------0----|--0-------------|-----------------|
D|----------------|-----------------|----------------|-----------------|


    E  Q.     Q       Q    Q    Q       E  Q.     Q       Q    Q    Q
E|--6--5------x----|--3----3----3----|--3--5------x----|--5----5----5----|
B|--6--6------x----|--1----1----1----|--1--3------x----|--6----6----6----|
G|-----------------|-----------------|-----------------|-----------------|
D|--0--0-----------|-----------------|-----------------|--0----0----0----|
A|------------x----|--3----3----3----|--3--5------x----|-----------------|
D|-----------------|-----------------|-----------------|-----------------|


    E  Q.     Q       E  E  E  E  E  E     H        E  E     Q    E  E  Q
E|--6--5-----------|--------------------|--------------0--|--1-------3--5----|
B|--6--6-----------|--------------------|-----------3-----|------------------|
G|-----------------|--------------------|-----------------|-------2----------|
D|--0--0-----------|--5-----3-----2-----|--0--------------|--0---------------|
A|-----------------|--5-----3-----2-----|--0--------------|------------------|
D|------------0----|--5-----3-----2-----|--0--------------|------------------|


    Q    Q    Q       Q    Q    Q       Q    Q    E  E     Q    E  E  Q
E|--3---------0----|--1----3----5----|--3---------1--3--|--5-------3--1----|
B|-----------------|-----------------|------------------|------------------|
G|-------0---------|-------0---------|-------0----------|-------0----------|
D|-----------------|-----------------|------------------|--0---------------|
A|--3--------------|-----------------|--3---------------|------------------|
D|-----------------|--3--------------|------------------|------------------|


    Q    Q    Q       Q    E  E  Q       Q    E  E  Q       Q    E  E  Q
E|--0----1----0----|----------0-------|-------------0----|--1-------0--1----|
B|-----------------|--3----------1----|--3-------3-------|------------------|
G|-----------------|-------2----------|-------2----------|-------2----------|
D|-----------------|--0---------------|--0---------------|--0---------------|
A|--0--------------|------------------|------------------|------------------|
D|-----------------|------------------|------------------|------------------|


    Q    Q    Q       Q    Q    Q       Q    Q    E  E     Q    Q    Q
E|--3----1----3----|--5----3----1----|---------------0--|--1----3----5----|
B|-----------------|-----------------|--3---------3-----|-----------------|
G|-------0---------|-----------------|--3---------------|-----------------|
D|-----------------|-----------------|-------3----------|-----------------|
A|--3--------------|--0--------------|--1---------------|-----------------|
D|-----------------|-----------------|------------------|-----------------|


                                                            ^
    Q    Q    Q       Q    E  E  Q       Q    E  E  Q       H        Q
E|--6---------3----|--1-------3--0----|-------------0----|--5-------------|
B|-----------------|------------------|--3-------3-------|--6-------------|
G|-------3---------|-------0----------|-------2----------|--7--------x----|
D|-----------------|--0---------------|--0---------------|--0--------x----|
A|-----------------|------------------|------------------|-----------x----|
D|--5--------------|------------------|------------------|----------------|


    ^                                                     ^
    H        Q       Q    Q    Q       E  Q.      Q       H        Q
E|--6--------x----|--5----5---------|--5--3~-----------|--3-------------|
B|--3--------x----|--6----6---------|------------------|--3-------------|
G|--3-------------|-----------------|-------------x----|--x--------x----|
D|--3--------x----|--0---------0----|-------------x----|--x--------x----|
A|--0-------------|-----------------|--3----------x----|--5--------x----|
D|----------------|-----------------|------------------|--5-------------|


    ^                                                     ^
    H        Q       Q    Q    Q       Q    E  E  Q       H        Q
E|--1--------x----|--0----1----0----|-------------0----|--5-------------|
B|--3-------------|-----------------|--3-------3-------|--6-------------|
G|--2-------------|-----------------|-------2----------|--7--------x----|
D|--0-------------|-----------------|--0---------------|--0--------x----|
A|--0--------x----|--0--------------|------------------|-----------x----|
D|--0-------------|-----------------|------------------|----------------|


    ^                                                     ^
    H        Q       Q    Q    Q       E  Q.      Q       H        Q
E|--6--------x----|--5----5---------|--5--3~-----------|--3-------------|
B|--3--------x----|--6----6---------|------------------|--3-------------|
G|--3-------------|-----------------|-------------x----|--x--------x----|
D|--3--------x----|--0---------0----|-------------x----|--x--------x----|
A|--0-------------|-----------------|--3----------x----|--5--------x----|
D|----------------|-----------------|------------------|--5-------------|


    ^                                  ^
    H        Q       Q    Q    Q       H.
E|--1--------x----|--0----1----0----|---------------||
B|--3-------------|-----------------|--3------------||
G|--2-------------|-----------------|--2------------||
D|--0-------------|-----------------|--0------------||
A|--0--------x----|--0--------------|--0------------||
D|--0-------------|-----------------|--0------------||


Duration Legend
---------------
W - whole
H - half
Q - quarter
E - 8th
S - 16th
T - 32nd
X - 64th
. - note dotted
|-n-|  - n-tuplets


Tablature Legend
----------------
L  - tied note
x  - dead note
h  - hammer on
s  - legato slide
~  - vibrato
^  - brush up
v  - brush down
PM - palm mute

echo "Hello World!";

Play until your fingers bleed!
Suggest correction new What's this?
You can suggest a correction to this tab. Community and Mods will review your correction and vote to approve or reject it.
comments
print report bad tab
2 comments total.
0 reply
noriku_kazumi 147 wrote on July 26 2014, 05:51 am

This tab is very useful! Although a few parts are inacurrate. But thank you for making this tab! ^^

0 reply
ninjastarforcex 2,343 wrote on November 3 2015, 03:45 am

there are some bass error in the earlier part

some of A bass should be D. and some of E bass should be A

guest
You may want to rate the tab now too:
select rating
Please do not post tabs as comments. Select "correction" instead!