Oops, an error
Loading. Please wait.

Super Mario Tab

27,555 views 51 this week
no commentswrite comment
1 2 3 4 5
x 7
add to favorites
launch autoscroll
font size
0
reset
how to read this tab
guitar tuner
Autoscroll
slow
fast
+/-
esc
set tempo
stop
Help us to improve Ultimate-Guitar.com Take our survey!
×
Author
Super Mario Bros --Intermediate ARRANGEMENT played in the key of C

E|--------------------------------|-3------------------------------|
B|-5---5-------5-----------5------|-0------------------------------|
G|-5---5-------5-------5---5------|-0---------------0--------------|
D|-4---4-------4-------4---4------|-0---------------0--------------|
A|-5---5-------5-------5---5------|--------------------------------|
E|--------------------------------|-----------------3--------------|

E|--------------------------------|--------------------------------|
B|-1------------------------------|--------------------------------|
G|-0-----------0------------------|-----2-------4-----3-----2-----0|
D|-2-----------2-----------2------|-----3-------5-----4-----3------|
A|-------------3------------------|--------------------------------|
E|-3-----------------------3------|-----1-------3-------2---1-----3|

E|-----0-----3-----5-------1---3--|-----0--------------------------|
B|--------------------------------|-----1-------1---3---0----------|
G|--------------------------------|-----0-------0---0---0----------|
D|-----------2-----3-------0---2--|-------------2-------0----------|
A|-----3--------------------------|-----3-------0---2--------------|
E|--------------------------------|---------------------3----------|

E|--------------------------------|--------------------------------|
B|-1------------------------------|--------------------------------|
G|-0-----------0------------------|-----2-------4-----3-----2-----0|
D|-2-----------2-----------2------|-----3-------5-----4-----3------|
A|-------------3------------------|--------------------------------|
E|-3-----------------------3------|-----1-------3-------2---1-----3|

E|-----0-----3-----5-------1---3--|-----0--------------------------|
B|--------------------------------|-----1-------1---3---0----------|
G|--------------------------------|-----0-------0---0---0----------|
D|-----------2-----3-------0---2--|-------------2-------0----------|
A|-----3--------------------------|-----3-------0---2--------------|
E|--------------------------------|---------------------3----------|

E|-------3---2---1-----------0----|--------------------------------|
B|-------------------4------------|-------------1-----------1---3--|
G|--------------------------------|---1---2-------------2----------|
D|--------------------------------|--------------------------------|
A|-3------------------------------|-------------3---3--------------|
E|-----------0-------------------1|-------------------------1------|

E|-------3-----2---1---------0----|---8-------8-----8--------------|
B|---------------------4----------|---8-------------8--------------|
G|--------------------------------|--12------12----10--------------|
D|--------------------------------|--------------------------------|
A|-3------------------------------|--------------------------------|
E|-------------0-----------3------|-------------------------3------|

E|-------3---2---1-----------0----|--------------------------------|
B|-------------------4------------|-------------1-----------1---3--|
G|--------------------------------|---1---2-------------2----------|
D|--------------------------------|--------------------------------|
A|-3------------------------------|-------------3---3--------------|
E|-----------0-------------------1|-------------------------1------|

E|--------------------------------|--------------------------------|
B|---------4-----------3---------1|--------------------------------|
G|---------1-----------3----------|-0------------------------------|
D|---------1-----------3----------|-2------------------------------|
A|---------------------1----------|-3---------------------3--------|
E|---------4----------------------|-----------3-----3--------------|

E|-------3---2---1-----------0----|--------------------------------|
B|-------------------4------------|-------------1-----------1---3--|
G|--------------------------------|---1---2-------------2----------|
D|--------------------------------|--------------------------------|
A|-3------------------------------|-------------3---3--------------|
E|-----------0-------------------1|-------------------------1------|

E|-------3-----2---1---------0----|---8-------8-----8--------------|
B|---------------------4----------|---8-------------8--------------|
G|--------------------------------|--12------12----10--------------|
D|--------------------------------|--------------------------------|
A|-3------------------------------|--------------------------------|
E|-------------0-----------3------|-------------------------3------|

E|-------3---2---1-----------0----|--------------------------------|
B|-------------------4------------|-------------1-----------1---3--|
G|--------------------------------|---1---2-------------2----------|
D|--------------------------------|--------------------------------|
A|-3------------------------------|-------------3---3--------------|
E|-----------0-------------------1|-------------------------1------|

E|--------------------------------|--------------------------------|
B|---------4-----------3---------1|-------------------------------1|
G|---------1-----------3----------|-0------------------------------|
D|---------1-----------3----------|-2------------------------------|
A|---------------------1----------|-3---------------------3--------|
E|---------4----------------------|-----------3-----3--------------|

E|-------------------------------0|--------------------------------|
B|-----1-----1-------1---3--------|-----1-------------------------1|
G|-1---1-----1-------1---3--------|-----------2---0----------------|
D|-------------1------------------|--------------------------------|
A|-------------------------------3|-------------------------3------|
E|-4-----------------------4------|-----------3--------------------|

E|---------------------------0----|--------------------------------|
B|-----1-----1-------1---3--------|-------------------------------1|
G|-1---1-----1-------1---3--------|--------------------------------|
D|-------------1------------------|--------------------------------|
A|--------------------------------|-----------3--------------------|
E|-4-----------------------4-----3|-------------------------3------|

E|-------------------------------0|--------------------------------|
B|-----1-----1-------1---3--------|-----1--------------------------|
G|-1---1-----1-------1---3--------|-----------2---0----------------|
D|-------------1------------------|--------------------------------|
A|-------------------------------3|-------------------------3------|
E|-4-----------------------4------|-----------3--------------------|

E|--------------------------------|-3------------------------------|
B|-5---5-------5-----------5------|-0------------------------------|
G|-5---5-------5-------5---5------|-0---------------0--------------|
D|-4---4-------4-------4---4------|-0---------------0--------------|
A|-5---5-------5-------5---5------|--------------------------------|
E|--------------------------------|-----------------3--------------|

E|-0------------------------------|-----1-----1--------------------|
B|-----1--------------------------|--------------------------------|
G|-----------0-------------1------|-2---------------2--------------|
D|--------------------------------|--------------------------------|
A|-3------------------------------|-------------3---3--------------|
E|-------------0---0-----------0--|-1---------------------1--------|

E|---5-------5---5---3-------1----|-0------------------------------|
B|-0------------------------------|-----1 0------------------------|
G|--------------------------------|-----------2-----0--------------|
D|--------------------------------|--------------------------------|
A|-----------------------2--------|-3---3-------------------3------|
E|-3-----------3------------------|-------------3---3--------------|

E|-0------------------------------|-----1-----1--------------------|
B|-----1--------------------------|---------------1---------------0|
G|-----------0-------------1-----2|-----------2-----2-------------0|
D|--------------------------------|--------------------------------|
A|-3------------------------------|-----------------3---3----------|
E|-------------0---0-----------0--|-1-----------------------1------|

E|-----1-----1-----1-----0--------|--------------------------------|
B|-----0-----0-----0-----0-----3--|-1------------------------------|
G|-----0-----0-----0-----0-----0--|--------------------------------|
D|-0---------------------------0--|-----2-------2------------------|
A|-----------------------0-----2--|-3---------------3--------------|
E|-3---3-----3-----3--------------|---------3----------------------|

E|-0------------------------------|-----1-----1--------------------|
B|-----1--------------------------|--------------------------------|
G|-----------0-------------1------|-2---------------2--------------|
D|--------------------------------|--------------------------------|
A|-3------------------------------|-------------3---3--------------|
E|-------------0---0-----------0--|-1---------------------1--------|

E|---5-------5---5---3-------1----|-0------------------------------|
B|-0------------------------------|-----1 0------------------------|
G|--------------------------------|-----------2-----0--------------|
D|--------------------------------|--------------------------------|
A|-----------------------2--------|-3---3-------------------3------|
E|-3-----------3------------------|-------------3---3--------------|

E|-0------------------------------|-----1-----1--------------------|
B|-----1--------------------------|---------------1---------------0|
G|-----------0-------------1-----2|-----------2-----2-------------0|
D|--------------------------------|--------------------------------|
A|-3------------------------------|-----------------3---3----------|
E|-------------0---0-----------0--|-1-----------------------1------|

E|-----1-----1-----1-----0--------|--------------------------------|
B|-----0-----0-----0-----0-----3--|-1------------------------------|
G|-----0-----0-----0-----0-----0--|--------------------------------|
D|-0---------------------------0--|-----2-------2------------------|
A|-----------------------0-----2--|-3---------------3--------------|
E|-3---3-----3-----3--------------|---------3----------------------|

E|-------------------------0-----3|---------------0----------------|
B|---------------------1---------1|---------------1----------------|
G|-----------------0-------------0|---------------0----------------|
D|-----------2-------------------2|--------------------------------|
A|-------3------------------------|---------------3----------------|
E|-3------------------------------|--------------------------------|

E|-------------------------------4|--------------------------------|
B|-------------------1-----4-----1|---------------4----------------|
G|---------------1---------------1|---------------1----------------|
D|---------1----------------------|-1-------------1----------------|
A|-----3--------------------------|---------------3----------------|
E|-4------------------------------|--------------------------------|

E|--------------------------------|-6-------------6-----6---6------|
B|---------------------3-----6----|-6-------------6-----6---6------|
G|---------------3----------------|-3-------------3---------3------|
D|-----------3--------------------|-3------------------------------|
A|-----5--------------------------|---------------5-----5---5------|
E|-6------------------------------|--------------------------------|

E|-8------------------------------|--------------------------------|
B|-8------------------------------|--------------------------------|
G|-5------------------------------|--------------------------------|
D|--------------------------------|--------------------------------|
A|-7------------------------------|--------------------------------|
E|--------------------------------|--------------------------------|
Suggest correction
comments
print report bad tab
guest
You may want to rate the tab now too:
select rating
Wanna post a correction for this tab? Suggest correction