Oops, an error
Loading. Please wait.

Wake Me Up When September Ends tab

version 2
version 2

Whole song

Interactive

22,913 views 45 this week
2 commentsread comments
1 2 3 4 5
x 8
add to favorites
×
Save as Personal and add changes to this tab that will be seen only by you. Learn more ›
×
You can save this tab as Personal to edit and correct it or add notes. All changes will be seen only by you. Learn more »
launch autoscroll
font size
0
reset
how to read this tab
guitar tuner
edit
Autoscroll
slow
fast
+/-
esc
set tempo
stop
-------------------------------------------------------------------------------
                                        Wake me up When September Ends   
-------------------------------------------------------------------------------
Artist:Sungha Jung
Tabbed by:Justin M. Alijuddin (Basilan State College Laboratory High School)
Age:15
Location:Sta. Clara Lamitan City,Basilan Phillipines
Tuning:Drop D
Arranged by: Ulli Bogershausen



This song is in Drop D



Intro
  0:02 - 0:10
e|---------------------------|
B|------3-----3-----3-----3--|
G|----0-----0-----0-----0----|
D|--5-----5-----5-----5------|
A|---------------------------|
D|---------------------------|



Verse
  0:11 - 0:19
e|--------------------------------------------------------|
B|---------0--0------0--0------0--0-----3/5---3--0--------|
G|-----2-----------2------0--2--------0-------------------|
D|-------0-----------------------------------------0h2p0--|
A|--------------------------------------------------------|
D|--0--5--------0--4---------2------2-------0-------------|
    Summer has come and passed. The innocent can never last.

  0:20 - 0:28
e|------------------------------------------------------|
B|--3--1----------3----------0--------------------------|
G|--0----0--------5--5-------------0-----0-----0-----0--|
D|-----------2----6----5---7-----0-----0-----0-----0----|
A|--3------3---0--3-------------------------------------|
D|-----------------------3-----5-----5-----5-----5------|
    Wake me up, When September ends.

  0:29 - 0:36
e|-----------------------------------------------------------------|
B|------0--0------0--0--------------0--0-------3/5---3--0----------|
G|--2-----------2----------0--2--------------0---------------------|
D|----0------------------4--------2--------2--------------------0--|
A|----------------------------------------------------------0h2----|
D|--5--------0--4------0--------2--------2---------0------0--------|
    Like my father's come to pass, seven years has gone so fast.

  0:37 - 0:45
e|-----------------------------------------------------------|
B|--3--1----------3----------0-------------------------------|
G|--0----0--------5--5-------------0-----0-----0--------0----|
D|-----------2----6----5---7-----0-----0-----0--------0------|
A|--3------3---0--3------------------------------------------|
D|-----------------------3-----5-----5-----5-----0--4-----0--|
    Wake me up, When September ends.



Bridge
  0:46 - 0:54
e|-----------------------------------------------------------|
B|------0--0--0---0--0----------1--0------0------------------|
G|--2-----------2--------------------0--2-------0-------0----|
D|----2---------------------------------------0---0---0---0--|
A|--------------2------2p0---0--3----------------------------|
D|--2----------------------5----------------5-------4--------|
    Here comes the rain again, falling from the stars.

  0:55 - 1:02
e|-----------------------------------------------------------|
B|------0--0----0------------0-------------------------------|
G|--2----------------------0---2--0--2--2--------------------|
D|----2-----------4--4------------------------0------0--2p0--|
A|-----------0--2--------2---3--------------0---0--3---------|
D|--2------------------4------------------0------------------|
    Drenched in my pain again, becoming who we are.



Verse
  1:03 - 1:11
e|------------------------------------------------------------------|
B|-------0--0--0----0--0--------------0--0-------3/5---3------------|
G|--2----0--0--0--2----------0--2--------------0-----------4--------|
D|-----0-------------------4--------2--------2-----------------5----|
A|------------------------------------------------------------------|
D|--5-------------4------0--------2--------2---------0---0---0---0--|
    As my memory rests, But never forgets what I lost.

  1:12 - 1:19
e|-------------------------------------------------------|
B|--3--1----------3--------------------------------------|
G|--0----0--------5--5--------------------------0-----0--|
D|-----------2----6----5---7--7-----5-----5---0-----0----|
A|--3------3---0--3---------------5-----5----------------|
D|-----------------------3------5-----5-----5-----5------|
    Wake me up, When September ends.



Bridge
  1:20 - 1:24
e|--------------------------------|
B|----3-----3--------3-----3------|
G|------0-----0--------0-----0----|
D|--5--------------5--------------|
A|--------------------------------|
D|--5-----5-----0--5-----5-----0--|

  1:25 - 1:32
e|----------------------------------------------------------------------------------|
B|-----------------------------------------------3------3------------3------3-------|
G|-------0------0------------0------0------------0------0------------0------0-------|
D|-------0------0------------0------0------------0------0------------0------0-------|
A|--5--5---5--5---x-----5--5---5--5---x-----5--5---5--5---x-----5--5---5--5---x-----|
D|--5--5---5--5---x--0--5--5---5--5---x--0--5--5---5--5---x--0--5--5---5--5---x--0--|
 


Chorus
  1:33 - 1:40
e|-------------------------------------------------------------------------------|
B|----------0---0---------------0------------------0-------3/5---3---------------|
G|--2-------0---0-------2-------2-----0--2-------------0-------------4-----------|
D|----------------------------------4------------------------------------5-------|
A|-------------------------------------------------------------------------------|
D|--5--5--5---5---5--0--4--4--4---0--------2--2--2---2---2-----0---0---0---0--0--|
    Summer has come and passed. The innocent can never last.
  
  1:41 - 1:44
e|------------------------------|
B|--3--1----------3-------------|
G|--0----0--------5--5-------0--|
D|-----------2----6----5---7----|
A|--3------3---0--3-------------|
D|-----------------------3------|
    Wake me up, when September ends.
 


Bridge
 1:45 - 1:49
e|------------------------------------------|
B|--------------3-------------------3-------|
G|-------0------0------------0------0-------|
D|-------0------0------------0------0-------|
A|--5--5---5--5---x-----5--5---5--5---x-----|
D|--5--5---5--5---x--0--5--5---5--5---x--0--|



Verse
  1:50 - 1:57
e|---------------------------------------------------------------------------------------|
B|----------0---0---------------0----------------0--0-------3/5------3--0----------------|
G|--2-------0---0-------2-------2-----0--2----------------0------------------------------|
D|----------------------------------4-------------------2-----------------------0h2------|
A|--------------------------------------------------------------------------0h2-----0h2--|
D|--5--5--5---5---5--0--4--4--4---0--------2--2--2----2---------0--0------0--------------|
    Ring out the bells again. Like we did when spring began.

  1:58 - 2:01
e|-------------------------------|
B|--3--1----------3--------------|
G|--0----0--------5--5-----------|
D|-----------2----6----5---7--7--|
A|--3------3---0--3--------------|
D|-----------------------3-------|
    Wake me up, when September ends.



Bridge 
  2:02 - 2:05
e|--------------------------------------------|
B|-------0------------------------------------|
G|-------0-------------------0---------0------|
D|--------------5------------0---------0---0--|
A|--5--5---5--5---x---------------------------|
D|--5--5---5--5---x--0--5--5---5--4--4---0----|

  2:06 - 2:13
e|--------------------------------------------------------------------|
B|----------0---0---0---0--0----------1--0-------0--------------------|
G|--2-----------------2--------------------0---2-------0---------0----|
D|---------------------------------------------------0-----0---0------|
A|--------------------2------2p0---0--3------3------------------------|
D|--2--2--2---2---2--------------5-----------------5-----0---4-----0--|
    Here comes the rain again, falling from the stars.

  2:14 - 2:21
e|---------------------------------------------------------------------|
B|----------0---0---0--0------------0----------------------------------|
G|--2-----------------------------0------2--0---2--2-----2--------2----|
D|-----------------------4--4-----0--------------------0--------0------|
A|---------------------2--------2---3--3------0------------0--3-----0--|
D|--2--2--2---2---2-----------4----------------------0-----------------|
    Drenched in my pain again, becoming who we are.



Verse
  2:22 - 2:29
e|------------------------------------------------------------------|
B|------0--0-------0--0--------------0--0-------3/5---3--0----------|
G|--2---0--0---2------------0--2--------------0---------------------|
D|----0------0------------4--------2--------2----------------0h2p0--|
A|------------------------------------------------------------------|
D|--5------------4------0--------2--------2---------0------0--------|
    As my memory rest, but never forgets what I lost.
[ Tab from: http://www.guitaretab.com/u/ulli-bogershausen/180454.html ]
  2:30 - 2:33
e|-------------------------------|
B|--3--1----------3--------------|
G|--0----0--------5--5-----------|
D|-----------2----6----5---7--7--|
A|--3------3---0--3--------------|
D|-----------------------3-------|
    Wake me up, when September ends.



Bridge
  2:34 - 2:37
e|--------------------------------------------|
B|-------0------------------------------------|
G|-------0-------------------0---------0------|
D|--------------5------------0---------0---0--|
A|--5--5---5--5---x---------------------------|
D|--5--5---5--5---x--0--5--5---5--4--4---0----|



Solo
  2:38 - 2:43
e|---------------------------------------------------------------------------------------|
B|-------------------------------0------0----0------0------0---0-------------------------|
G|-------0---------0-------0--0--0------0--0--------0------0-----------5--------5-----5--|
D|-------0---------0---0---2--2----2--2----2---4--4---4--4---4---5--5--5--5--5--5--5--5--|
A|---------------------------------------------2--2---2--2---2---3--3-----3--3-----3-----|
D|--5--5---5--4--4---0-----2--2----2--2----2---------------------------------------------|

 2:44 - 2:51
e|---------------------------------------------------------------------------------------|
B|-------------------------------0------0----0------0------0---0-------------------------|
G|-------0---------0-------0--0--0------0--0--------0------0-----------5--------5-----5--|
D|-------0---------0---0---2--2----2--2----2---4--4---4--4---4---5--5--5--5--5--5--5--5--|
A|---------------------------------------------2--2---2--2---2---3--3-----3--3-----3-----|
D|--5--5---5--4--4---0-----2--2----2--2----2---------------------------------------------|

  2:52 - 2:59
e|---------------------------------------------------------------------------------------|
B|---------------------------------------------------------------------------------------|
G|--------7--------7-----7------7------7---7--------7--------7-----7------7------7-------|
D|--7--7--7--7--7--7--7--7------7------7---7--7--7--7--7--7--7--7--7------7------7----0--|
A|--5--5-----5--5-----5----5--5---5--5---5----5--5-----5--5-----5----5--5---5--5---5-----|
D|-------------------------4--4---4--4---4----0--0-----0--0-----0----4--4---4--4---4--0--|

  

Bridge
  3:00 - 3:08
e|--------------------------------------------------------------|
B|----3-----3--------3-----3--------3-----3--------3-----3------|
G|------0-----0--------0-----0--------0-----0--------0-----0----|
D|--5-----5-----0--5-----5-----0--5-----5-----0--5-----5--------|
A|--------------------------------------------------------------|
D|--5-----------0--5-----------0--5-----------0--5-----------0--|



Verse
  3:09 - 3:16
e|-----------------------------------------------------|
B|------0--0------0--0------0--0-----3/5---3--0--------|
G|--2-----------2------0--2--------0-------------------|
D|----0-----------------------------------------0h2p0--|
A|-----------------------------------------------------|
D|--5--------0--4---------2------2-------0-------------|
    Summer has come and passed. The innocent can never last.

  3:17 - 3:20
e|------------------------------|
B|--3--1----------3----------0--|
G|--0----0--------5--5----------|
D|-----------2----6----5---7----|
A|--3------3---0--5-------------|
D|-----------------------3------|
    Wake me up, When September ends.



Bridge
  3:21 - 3:24
e|------------------------------------------|
B|--------------3-------------------3-------|
G|-------0------0------------0------0-------|
D|-------0------0------------0------0-------|
A|--5--5---5--5---x-----5--5---5--5---x-----|
D|--5--5---5--5---x--0--5--5---5--5---x--0--|



Verse
  3:25 - 3:33  
e|------------------------------------------------------------------------------|
B|----------0---0---------------0------------------0-------3/5--3---0-----------|
G|--2-------0---0-------2-------2-----0--2-------------0------------------------|
D|----------------------------------4----------------------------------------0--|
A|----------------------------------------------------------------------0--2----|
D|--5--5--5---5---5--0--4--4--4---0--------2--2--2---2---2----0---0---0---------|
    Like my father's come to pass. Twenty years has gone so fast.

  3:34 - 3:37
e|-------------------------------|
B|--3--1----------3--------------|
G|--0----0--------5--5-----------|
D|-----------2----6----5---7--7--|
A|--3------3---0--3--------------|
D|-----------------------3-------|
    Wake me up, when September ends.



Bridge
  3:38 - 3:41
e|------------------------------------------|
B|-------0--------------------------0-------|
G|-------0-------------------2------0-------|
D|--------------5------------0--------------|
A|--5--5---5--5---x-----5--5---5--5---x-----|
D|--5--5---5--5---x--0--5--5---5--5---x--0--|



Verse
  3:42 - 3:49
e|--------------------------------------------------------------------|
B|----------0---0---0---0--0----------1--0-------0--------------------|
G|--2-----------------2--------------------0---2-------0---------0----|
D|---------------------------------------------------0-----0---0------|
A|--------------------2------2p0---0--3------3------------------------|
D|--2--2--2---2---2--------------5-----------------5-----0---4-----0--|
    Here comes the rain again, falling from the stars.

  3:50 - 3:57
e|---------------------------------------------------------------------|
B|----------0---0---0--0------------0----------------------------------|
G|--2-----------------------------0------2--0---2--2-----2--------2----|
D|-----------------------4--4-----0--------------------0--------0------|
A|---------------------2--------2---3--3------0------------0--3-----0--|
D|--2--2--2---2---2-----------4----------------------0-----------------|
    Drenched in my pain again, becoming who we are.



Verse/Bridge
  3:58 - 4:05
e|------------------------------------------------------------------|
B|------0--0-------0--0--------------0--0-------3/5---3--0----------|
G|--2---0--0---2------------0--2--------------0---------------------|
D|----0------0------------4--------2--------2----------------0h2p0--|
A|------------------------------------------------------------------|
D|--5------------4------0--------2--------2---------0------0--------|
    As my memory rest, but never forgets what I lost.

  4:06 - 4:10
e|-------------------------------|
B|--3--1----------3--------------|
G|--0----0--------5--5-----------|
D|-----------2----6----5---7--7--|
A|--3------3---0--3--------------|
D|-----------------------3-------|
    Wake me up, when September ends.

  4:11 - 4:13
e|------------------------------------------|
B|-------0--------------------------0-------|
G|-------0-------------------2------0-------|
D|--------------5------------0--------------|
A|--5--5---5--5---x-----5--5---5--5---x-----|
D|--5--5---5--5---x--0--5--5---5--5---x--0--|

  4:14 - 4:17
e|-------------------------------|
B|--3--1----------3--------------|
G|--0----0--------5--5-----------|
D|-----------2----6----5---7--7--|
A|--3------3---0--3--------------|
D|-----------------------3-------|
    Wake me up, when September ends.
 
  4:18 - 4:21
e|------------------------------------------|
B|-------0--------------------------0-------|
G|-------0-------------------2------0-------|
D|--------------5------------0--------------|
A|--5--5---5--5---x-----5--5---5--5---x-----|
D|--5--5---5--5---x--0--5--5---5--5---x--0--|


  4:22 - 4:26
e|-------------------------------|
B|--3--1----------3--------------|
G|--0----0--------5--5-----------|
D|-----------2----6----5---7--7--|
A|--3------3---0--3--------------|
D|-----------------------3-------|
    Wake me up, when September ends.
 
  4:27 - 4:30
e|------------------------------------------|
B|-------0--------------------------0-------|
G|-------0-------------------2------0-------|
D|--------------5------------0--------------|
A|--5--5---5--5---x-----5--5---5--5---x-----|
D|--5--5---5--5---x--0--5--5---5--5---x--0--|


  4:31 - 4:34
e|-------------------------------|
B|--3--1----------3--------------|
G|--0----0--------5--5-----------|
D|-----------2----6----5---7--7--|
A|--3------3---0--3--------------|
D|-----------------------3-------|
    Wake me up, when September ends.
 
  4:35 - 4:38
e|------------------------------------------|
B|-------0--------------------------0-------|
G|-------0-------------------2------0-------|
D|--------------5------------0--------------|
A|--5--5---5--5---x-----5--5---5--5---x-----|
D|--5--5---5--5---x--0--5--5---5--5---x--0--|


Outro
  4:39 - 3:08
e|----------------------------------------------------------|
B|----3-----3--------3-----3--------3-----3--------3-----3--|
G|------0-----0--------0-----0--------0-----0--------0------|
D|--5-----5-----0--5-----5-----0--5-----5-----0--5-----5----|
A|----------------------------------------------------------|
D|--5-----------0--5-----------0--5-----------0--5----------|




| /  slide up
| \  slide down
| h  hammer-on
| p  pull-off
| ~  vibrato
| +  harmonic
| x  Mute note
===============================================================================

            
            
Suggest correction
Creating personal tab
Creating personal tab
You can edit any tab online and save it as your Personal.

You can edit, replace or remove any tab part or add personal notes – all changes will be seen only by you.

Personal tabs can be accessed anytime from any device, even offline.
Learn more »
comments
print report bad tab
2 comments total.
0 reply
SimounZon 129 Nov 07, 2013 08:46 PM

Nice KABABAYAN!

guest
You may want to rate the tab now too:
select rating
Wanna post a correction for this tab? Suggest correction